  0
SECTION
  2
HEADER
  9
$ACADVER
  1
AC1014
  9
$HANDSEED
  5
FFFF
  9
$MEASUREMENT
 70
     1
  0
ENDSEC
  0
SECTION
  2
TABLES
  0
TABLE
  2
VPORT
  5
8
330
0
100
AcDbSymbolTable
 70
     4
  0
VPORT
  5
2E
330
8
100
AcDbSymbolTableRecord
100
AcDbViewportTableRecord
  2
*ACTIVE
 70
     0
 10
0.0
 20
0.0
 11
1.0
 21
1.0
 12
210.0
 22
148.5
 13
0.0
 23
0.0
 14
10.0
 24
10.0
 15
10.0
 25
10.0
 16
0.0
 26
0.0
 36
1.0
 17
0.0
 27
0.0
 37
0.0
 40
341.0
 41
1.24
 42
50.0
 43
0.0
 44
0.0
 50
0.0
 51
0.0
 71
     0
 72
   100
 73
     1
 74
     3
 75
     0
 76
     0
 77
     0
 78
     0
  0
ENDTAB
  0
TABLE
  2
LTYPE
  5
5
330
0
100
AcDbSymbolTable
 70
     1
  0
LTYPE
  5
14
330
5
100
AcDbSymbolTableRecord
100
AcDbLinetypeTableRecord
  2
BYBLOCK
 70
     0
  3

 72
    65
 73
     0
 40
0.0
  0
LTYPE
  5
15
330
5
100
AcDbSymbolTableRecord
100
AcDbLinetypeTableRecord
  2
BYLAYER
 70
     0
  3

 72
    65
 73
     0
 40
0.0
  0
LTYPE
  5
16
330
5
100
AcDbSymbolTableRecord
100
AcDbLinetypeTableRecord
  2
CONTINUOUS
 70
     0
  3
Solid line
 72
    65
 73
     0
 40
0.0
  0
ENDTAB
  0
TABLE
  2
LAYER
  5
2
100
AcDbSymbolTable
 70
2
  0
LAYER
  5
50
100
AcDbSymbolTableRecord
100
AcDbLayerTableRecord
  2
0
 70
0
  6
CONTINUOUS
  0
LAYER
  5
51
100
AcDbSymbolTableRecord
100
AcDbLayerTableRecord
  2
Calque_1
 70
0
  6
CONTINUOUS
  0
ENDTAB
  0
TABLE
  2
STYLE
  5
3
330
0
100
AcDbSymbolTable
 70
     1
  0
STYLE
  5
11
330
3
100
AcDbSymbolTableRecord
100
AcDbTextStyleTableRecord
  2
STANDARD
 70
     0
 40
0.0
 41
1.0
 50
0.0
 71
     0
 42
2.5
  3
txt
  4

  0
ENDTAB
  0
TABLE
  2
VIEW
  5
6
330
0
100
AcDbSymbolTable
 70
     0
  0
ENDTAB
  0
TABLE
  2
UCS
  5
7
330
0
100
AcDbSymbolTable
 70
     0
  0
ENDTAB
  0
TABLE
  2
APPID
  5
9
330
0
100
AcDbSymbolTable
 70
     2
  0
APPID
  5
12
330
9
100
AcDbSymbolTableRecord
100
AcDbRegAppTableRecord
  2
ACAD
 70
     0
  0
ENDTAB
  0
TABLE
  2
DIMSTYLE
  5
A
330
0
100
AcDbSymbolTable
 70
     1
  0
DIMSTYLE
105
27
330
A
100
AcDbSymbolTableRecord
100
AcDbDimStyleTableRecord
  2
ISO-25
 70
     0
  3

  4

  5

  6

  7

 40
1.0
 41
2.5
 42
0.625
 43
3.75
 44
1.25
 45
0.0
 46
0.0
 47
0.0
 48
0.0
140
2.5
141
2.5
142
0.0
143
0.03937007874016
144
1.0
145
0.0
146
1.0
147
0.625
 71
     0
 72
     0
 73
     0
 74
     0
 75
     0
 76
     0
 77
     1
 78
     8
170
     0
171
     3
172
     1
173
     0
174
     0
175
     0
176
     0
177
     0
178
     0
270
     2
271
     2
272
     2
273
     2
274
     3
340
11
275
     0
280
     0
281
     0
282
     0
283
     0
284
     8
285
     0
286
     0
287
     3
288
     0
  0
ENDTAB
  0
TABLE
  2
BLOCK_RECORD
  5
1
330
0
100
AcDbSymbolTable
 70
     1
  0
BLOCK_RECORD
  5
1F
330
1
100
AcDbSymbolTableRecord
100
AcDbBlockTableRecord
  2
*MODEL_SPACE
  0
BLOCK_RECORD
  5
1B
330
1
100
AcDbSymbolTableRecord
100
AcDbBlockTableRecord
  2
*PAPER_SPACE
  0
ENDTAB
  0
ENDSEC
  0
SECTION
  2
BLOCKS
  0
BLOCK
  5
20
330
1F
100
AcDbEntity
  8
0
100
AcDbBlockBegin
  2
*MODEL_SPACE
 70
     0
 10
0.0
 20
0.0
 30
0.0
  3
*MODEL_SPACE
  1

  0
ENDBLK
  5
21
330
1F
100
AcDbEntity
  8
0
100
AcDbBlockEnd
  0
BLOCK
  5
1C
330
1B
100
AcDbEntity
 67
     1
  8
0
100
AcDbBlockBegin
  2
*PAPER_SPACE
  1

  0
ENDBLK
  5
1D
330
1B
100
AcDbEntity
 67
     1
  8
0
100
AcDbBlockEnd
  0
ENDSEC
  0
SECTION
  2
ENTITIES
  0
SPLINE
  5
100
100
AcDbEntity
  8
Calque_1
 62
7
100
AcDbSpline
 70
8
 71
3
 72
8
 73
4
 74
0
 40
0
 40
0
 40
0
 40
0
 40
1
 40
1
 40
1
 40
1
 10
41.614507
 20
266.134387
 30
0.0
 10
41.614507
 20
266.134387
 30
0.0
 10
42.697321
 20
266.142376
 30
0.0
 10
43.096988
 20
266.282207
 30
0.0
  0
SPLINE
  5
101
100
AcDbEntity
  8
Calque_1
 62
7
100
AcDbSpline
 70
8
 71
3
 72
8
 73
4
 74
0
 40
0
 40
0
 40
0
 40
0
 40
1
 40
1
 40
1
 40
1
 10
43.096988
 20
266.282207
 30
0.0
 10
43.501274
 20
266.477539
 30
0.0
 10
43.649350
 20
266.857216
 30
0.0
 10
43.904126
 20
267.159415
 30
0.0
  0
SPLINE
  5
102
100
AcDbEntity
  8
Calque_1
 62
7
100
AcDbSpline
 70
8
 71
3
 72
8
 73
4
 74
0
 40
0
 40
0
 40
0
 40
0
 40
1
 40
1
 40
1
 40
1
 10
43.904126
 20
267.159415
 30
0.0
 10
47.757050
 20
271.729488
 30
0.0
 10
55.783874
 20
275.075991
 30
0.0
 10
63.777512
 20
277.538982
 30
0.0
  0
SPLINE
  5
103
100
AcDbEntity
  8
Calque_1
 62
7
100
AcDbSpline
 70
8
 71
3
 72
8
 73
4
 74
0
 40
0
 40
0
 40
0
 40
0
 40
1
 40
1
 40
1
 40
1
 10
63.777512
 20
277.538982
 30
0.0
 10
72.276373
 20
280.157644
 30
0.0
 10
81.914778
 20
281.925489
 30
0.0
 10
91.389794
 20
283.832602
 30
0.0
  0
SPLINE
  5
104
100
AcDbEntity
  8
Calque_1
 62
7
100
AcDbSpline
 70
8
 71
3
 72
8
 73
4
 74
0
 40
0
 40
0
 40
0
 40
0
 40
1
 40
1
 40
1
 40
1
 10
91.389794
 20
283.832602
 30
0.0
 10
115.729636
 20
287.666280
 30
0.0
 10
135.414485
 20
290.226224
 30
0.0
 10
167.485733
 20
288.841642
 30
0.0
  0
SPLINE
  5
105
100
AcDbEntity
  8
Calque_1
 62
7
100
AcDbSpline
 70
8
 71
3
 72
8
 73
4
 74
0
 40
0
 40
0
 40
0
 40
0
 40
1
 40
1
 40
1
 40
1
 10
167.485733
 20
288.841642
 30
0.0
 10
201.994554
 20
287.861536
 30
0.0
 10
235.683287
 20
283.852461
 30
0.0
 10
270.289695
 20
278.542302
 30
0.0
  0
LWPOLYLINE
  5
106
100
AcDbEntity
  8
Calque_1
 62
7
100
AcDbPolyline
 90
2
 70
0
 10
11.122355
 20
265.939321
 30
0.0
 10
41.614507
 20
266.134387
 30
0.0
  0
SPLINE
  5
107
100
AcDbEntity
  8
Calque_1
 62
7
100
AcDbSpline
 70
8
 71
3
 72
8
 73
4
 74
0
 40
0
 40
0
 40
0
 40
0
 40
1
 40
1
 40
1
 40
1
 10
378.866071
 20
262.052148
 30
0.0
 10
384.036734
 20
262.043449
 30
0.0
 10
406.767886
 20
262.202249
 30
0.0
 10
411.371986
 20
262.484346
 30
0.0
  0
LWPOLYLINE
  5
108
100
AcDbEntity
  8
Calque_1
 62
7
100
AcDbPolyline
 90
2
 70
0
 10
270.289695
 20
278.542302
 30
0.0
 10
378.866071
 20
262.052148
 30
0.0
  0
SPLINE
  5
109
100
AcDbEntity
  8
Calque_1
 62
7
100
AcDbSpline
 70
8
 71
3
 72
8
 73
4
 74
0
 40
0
 40
0
 40
0
 40
0
 40
1
 40
1
 40
1
 40
1
 10
411.419679
 20
223.039804
 30
0.0
 10
269.903551
 20
222.403530
 30
0.0
 10
162.515272
 20
222.958689
 30
0.0
 10
10.930418
 20
222.769190
 30
0.0
  0
LWPOLYLINE
  5
10a
100
AcDbEntity
  8
Calque_1
 62
7
100
AcDbPolyline
 90
2
 70
0
 10
411.371986
 20
262.484346
 30
0.0
 10
411.419679
 20
223.039804
 30
0.0
  0
SPLINE
  5
10b
100
AcDbEntity
  8
Calque_1
 62
1
100
AcDbSpline
 70
8
 71
3
 72
8
 73
4
 74
0
 40
0
 40
0
 40
0
 40
0
 40
1
 40
1
 40
1
 40
1
 10
211.783359
 20
232.796725
 30
0.0
 10
211.783359
 20
232.023773
 30
0.0
 10
211.195993
 20
231.377376
 30
0.0
 10
210.426573
 20
231.303579
 30
0.0
  0
SPLINE
  5
10c
100
AcDbEntity
  8
Calque_1
 62
1
100
AcDbSpline
 70
8
 71
3
 72
8
 73
4
 74
0
 40
0
 40
0
 40
0
 40
0
 40
1
 40
1
 40
1
 40
1
 10
210.426573
 20
231.303579
 30
0.0
 10
209.657152
 20
231.229780
 30
0.0
 10
208.957628
 20
231.752746
 30
0.0
 10
208.810706
 20
232.511606
 30
0.0
  0
SPLINE
  5
10d
100
AcDbEntity
  8
Calque_1
 62
1
100
AcDbSpline
 70
8
 71
3
 72
8
 73
4
 74
0
 40
0
 40
0
 40
0
 40
0
 40
1
 40
1
 40
1
 40
1
 10
208.810706
 20
232.511606
 30
0.0
 10
208.663782
 20
233.270465
 30
0.0
 10
209.117571
 20
234.016724
 30
0.0
 10
209.858936
 20
234.235430
 30
0.0
  0
SPLINE
  5
10e
100
AcDbEntity
  8
Calque_1
 62
1
100
AcDbSpline
 70
8
 71
3
 72
8
 73
4
 74
0
 40
0
 40
0
 40
0
 40
0
 40
1
 40
1
 40
1
 40
1
 10
209.858936
 20
234.235430
 30
0.0
 10
210.600301
 20
234.454135
 30
0.0
 10
211.386476
 20
234.073669
 30
0.0
 10
211.674965
 20
233.356572
 30
0.0
  0
SPLINE
  5
10f
100
AcDbEntity
  8
Calque_1
 62
1
100
AcDbSpline
 70
8
 71
3
 72
8
 73
4
 74
0
 40
0
 40
0
 40
0
 40
0
 40
1
 40
1
 40
1
 40
1
 10
62.690593
 20
233.007650
 30
0.0
 10
62.690592
 20
232.234698
 30
0.0
 10
62.103227
 20
231.588302
 30
0.0
 10
61.333806
 20
231.514504
 30
0.0
  0
SPLINE
  5
110
100
AcDbEntity
  8
Calque_1
 62
1
100
AcDbSpline
 70
8
 71
3
 72
8
 73
4
 74
0
 40
0
 40
0
 40
0
 40
0
 40
1
 40
1
 40
1
 40
1
 10
61.333806
 20
231.514504
 30
0.0
 10
60.564386
 20
231.440706
 30
0.0
 10
59.864862
 20
231.963672
 30
0.0
 10
59.717940
 20
232.722532
 30
0.0
  0
SPLINE
  5
111
100
AcDbEntity
  8
Calque_1
 62
1
100
AcDbSpline
 70
8
 71
3
 72
8
 73
4
 74
0
 40
0
 40
0
 40
0
 40
0
 40
1
 40
1
 40
1
 40
1
 10
59.717940
 20
232.722532
 30
0.0
 10
59.571016
 20
233.481391
 30
0.0
 10
60.024804
 20
234.227650
 30
0.0
 10
60.766169
 20
234.446356
 30
0.0
  0
SPLINE
  5
112
100
AcDbEntity
  8
Calque_1
 62
1
100
AcDbSpline
 70
8
 71
3
 72
8
 73
4
 74
0
 40
0
 40
0
 40
0
 40
0
 40
1
 40
1
 40
1
 40
1
 10
60.766169
 20
234.446356
 30
0.0
 10
61.507534
 20
234.665060
 30
0.0
 10
62.293710
 20
234.284595
 30
0.0
 10
62.582199
 20
233.567498
 30
0.0
  0
SPLINE
  5
113
100
AcDbEntity
  8
Calque_1
 62
1
100
AcDbSpline
 70
8
 71
3
 72
8
 73
4
 74
0
 40
0
 40
0
 40
0
 40
0
 40
1
 40
1
 40
1
 40
1
 10
362.898202
 20
233.291139
 30
0.0
 10
362.898201
 20
232.518188
 30
0.0
 10
362.310836
 20
231.871791
 30
0.0
 10
361.541415
 20
231.797993
 30
0.0
  0
SPLINE
  5
114
100
AcDbEntity
  8
Calque_1
 62
1
100
AcDbSpline
 70
8
 71
3
 72
8
 73
4
 74
0
 40
0
 40
0
 40
0
 40
0
 40
1
 40
1
 40
1
 40
1
 10
361.541415
 20
231.797993
 30
0.0
 10
360.771994
 20
231.724195
 30
0.0
 10
360.072471
 20
232.247161
 30
0.0
 10
359.925548
 20
233.006021
 30
0.0
  0
SPLINE
  5
115
100
AcDbEntity
  8
Calque_1
 62
1
100
AcDbSpline
 70
8
 71
3
 72
8
 73
4
 74
0
 40
0
 40
0
 40
0
 40
0
 40
1
 40
1
 40
1
 40
1
 10
359.925548
 20
233.006021
 30
0.0
 10
359.778625
 20
233.764880
 30
0.0
 10
360.232413
 20
234.511139
 30
0.0
 10
360.973778
 20
234.729845
 30
0.0
  0
SPLINE
  5
116
100
AcDbEntity
  8
Calque_1
 62
1
100
AcDbSpline
 70
8
 71
3
 72
8
 73
4
 74
0
 40
0
 40
0
 40
0
 40
0
 40
1
 40
1
 40
1
 40
1
 10
360.973778
 20
234.729845
 30
0.0
 10
361.715143
 20
234.948549
 30
0.0
 10
362.501319
 20
234.568084
 30
0.0
 10
362.789808
 20
233.850987
 30
0.0
  0
LWPOLYLINE
  5
117
100
AcDbEntity
  8
Calque_1
 62
7
100
AcDbPolyline
 90
2
 70
0
 10
10.930418
 20
222.769190
 30
0.0
 10
11.122355
 20
265.939321
 30
0.0
  0
LWPOLYLINE
  5
118
100
AcDbEntity
  8
Calque_1
 62
7
100
AcDbPolyline
 90
2
 70
0
 10
411.322744
 20
183.062740
 30
0.0
 10
411.370439
 20
222.507274
 30
0.0
  0
SPLINE
  5
119
100
AcDbEntity
  8
Calque_1
 62
1
100
AcDbSpline
 70
8
 71
3
 72
8
 73
4
 74
0
 40
0
 40
0
 40
0
 40
0
 40
1
 40
1
 40
1
 40
1
 10
211.734131
 20
212.750361
 30
0.0
 10
211.734132
 20
213.523313
 30
0.0
 10
211.146768
 20
214.169711
 30
0.0
 10
210.377347
 20
214.243511
 30
0.0
  0
SPLINE
  5
11a
100
AcDbEntity
  8
Calque_1
 62
1
100
AcDbSpline
 70
8
 71
3
 72
8
 73
4
 74
0
 40
0
 40
0
 40
0
 40
0
 40
1
 40
1
 40
1
 40
1
 10
210.377347
 20
214.243511
 30
0.0
 10
209.607925
 20
214.317311
 30
0.0
 10
208.908400
 20
213.794344
 30
0.0
 10
208.761477
 20
213.035483
 30
0.0
  0
SPLINE
  5
11b
100
AcDbEntity
  8
Calque_1
 62
1
100
AcDbSpline
 70
8
 71
3
 72
8
 73
4
 74
0
 40
0
 40
0
 40
0
 40
0
 40
1
 40
1
 40
1
 40
1
 10
208.761477
 20
213.035483
 30
0.0
 10
208.614554
 20
212.276623
 30
0.0
 10
209.068344
 20
211.530363
 30
0.0
 10
209.809710
 20
211.311659
 30
0.0
  0
SPLINE
  5
11c
100
AcDbEntity
  8
Calque_1
 62
1
100
AcDbSpline
 70
8
 71
3
 72
8
 73
4
 74
0
 40
0
 40
0
 40
0
 40
0
 40
1
 40
1
 40
1
 40
1
 10
209.809710
 20
211.311659
 30
0.0
 10
210.551075
 20
211.092955
 30
0.0
 10
211.337251
 20
211.473420
 30
0.0
 10
211.625740
 20
212.190517
 30
0.0
  0
SPLINE
  5
11d
100
AcDbEntity
  8
Calque_1
 62
1
100
AcDbSpline
 70
8
 71
3
 72
8
 73
4
 74
0
 40
0
 40
0
 40
0
 40
0
 40
1
 40
1
 40
1
 40
1
 10
62.641372
 20
212.539436
 30
0.0
 10
62.641373
 20
213.312389
 30
0.0
 10
62.054007
 20
213.958788
 30
0.0
 10
61.284585
 20
214.032586
 30
0.0
  0
SPLINE
  5
11e
100
AcDbEntity
  8
Calque_1
 62
1
100
AcDbSpline
 70
8
 71
3
 72
8
 73
4
 74
0
 40
0
 40
0
 40
0
 40
0
 40
1
 40
1
 40
1
 40
1
 10
61.284585
 20
214.032586
 30
0.0
 10
60.515164
 20
214.106384
 30
0.0
 10
59.815641
 20
213.583418
 30
0.0
 10
59.668718
 20
212.824558
 30
0.0
  0
SPLINE
  5
11f
100
AcDbEntity
  8
Calque_1
 62
1
100
AcDbSpline
 70
8
 71
3
 72
8
 73
4
 74
0
 40
0
 40
0
 40
0
 40
0
 40
1
 40
1
 40
1
 40
1
 10
59.668718
 20
212.824558
 30
0.0
 10
59.521795
 20
212.065699
 30
0.0
 10
59.975583
 20
211.319440
 30
0.0
 10
60.716948
 20
211.100734
 30
0.0
  0
SPLINE
  5
120
100
AcDbEntity
  8
Calque_1
 62
1
100
AcDbSpline
 70
8
 71
3
 72
8
 73
4
 74
0
 40
0
 40
0
 40
0
 40
0
 40
1
 40
1
 40
1
 40
1
 10
60.716948
 20
211.100734
 30
0.0
 10
61.458314
 20
210.882028
 30
0.0
 10
62.244492
 20
211.262493
 30
0.0
 10
62.532981
 20
211.979592
 30
0.0
  0
SPLINE
  5
121
100
AcDbEntity
  8
Calque_1
 62
1
100
AcDbSpline
 70
8
 71
3
 72
8
 73
4
 74
0
 40
0
 40
0
 40
0
 40
0
 40
1
 40
1
 40
1
 40
1
 10
362.848962
 20
212.255946
 30
0.0
 10
362.848964
 20
213.028898
 30
0.0
 10
362.261600
 20
213.675296
 30
0.0
 10
361.492179
 20
213.749095
 30
0.0
  0
SPLINE
  5
122
100
AcDbEntity
  8
Calque_1
 62
1
100
AcDbSpline
 70
8
 71
3
 72
8
 73
4
 74
0
 40
0
 40
0
 40
0
 40
0
 40
1
 40
1
 40
1
 40
1
 10
361.492179
 20
213.749095
 30
0.0
 10
360.722757
 20
213.822896
 30
0.0
 10
360.023232
 20
213.299929
 30
0.0
 10
359.876309
 20
212.541068
 30
0.0
  0
SPLINE
  5
123
100
AcDbEntity
  8
Calque_1
 62
1
100
AcDbSpline
 70
8
 71
3
 72
8
 73
4
 74
0
 40
0
 40
0
 40
0
 40
0
 40
1
 40
1
 40
1
 40
1
 10
359.876309
 20
212.541068
 30
0.0
 10
359.729386
 20
211.782207
 30
0.0
 10
360.183176
 20
211.035948
 30
0.0
 10
360.924542
 20
210.817244
 30
0.0
  0
SPLINE
  5
124
100
AcDbEntity
  8
Calque_1
 62
1
100
AcDbSpline
 70
8
 71
3
 72
8
 73
4
 74
0
 40
0
 40
0
 40
0
 40
0
 40
1
 40
1
 40
1
 40
1
 10
360.924542
 20
210.817244
 30
0.0
 10
361.665907
 20
210.598539
 30
0.0
 10
362.452083
 20
210.979005
 30
0.0
 10
362.740571
 20
211.696102
 30
0.0
  0
SPLINE
  5
125
100
AcDbEntity
  8
Calque_1
 62
7
100
AcDbSpline
 70
8
 71
3
 72
8
 73
4
 74
0
 40
0
 40
0
 40
0
 40
0
 40
1
 40
1
 40
1
 40
1
 10
43.027824
 20
179.452655
 30
0.0
 10
43.294676
 20
181.194626
 30
0.0
 10
43.723209
 20
183.005731
 30
0.0
 10
46.169050
 20
184.263519
 30
0.0
  0
SPLINE
  5
126
100
AcDbEntity
  8
Calque_1
 62
7
100
AcDbSpline
 70
8
 71
3
 72
8
 73
4
 74
0
 40
0
 40
0
 40
0
 40
0
 40
1
 40
1
 40
1
 40
1
 10
46.169050
 20
184.263519
 30
0.0
 10
50.456813
 20
186.630581
 30
0.0
 10
55.823655
 20
187.601825
 30
0.0
 10
59.351658
 20
187.972879
 30
0.0
  0
SPLINE
  5
127
100
AcDbEntity
  8
Calque_1
 62
7
100
AcDbSpline
 70
8
 71
3
 72
8
 73
4
 74
0
 40
0
 40
0
 40
0
 40
0
 40
1
 40
1
 40
1
 40
1
 10
59.351658
 20
187.972879
 30
0.0
 10
64.660237
 20
188.793701
 30
0.0
 10
71.559597
 20
188.660057
 30
0.0
 10
78.045150
 20
188.774696
 30
0.0
  0
LWPOLYLINE
  5
128
100
AcDbEntity
  8
Calque_1
 62
7
100
AcDbPolyline
 90
3
 70
0
 10
10.881195
 20
222.777891
 30
0.0
 10
11.262120
 20
179.607758
 30
0.0
 10
43.020089
 20
179.440024
 30
0.0
  0
LWPOLYLINE
  5
129
100
AcDbEntity
  8
Calque_1
 62
7
100
AcDbPolyline
 90
4
 70
0
 10
78.045150
 20
188.774696
 30
0.0
 10
135.101905
 20
188.807114
 30
0.0
 10
232.579478
 20
186.668951
 30
0.0
 10
378.389014
 20
183.728976
 30
0.0
  0
SPLINE
  5
12a
100
AcDbEntity
  8
Calque_1
 62
7
100
AcDbSpline
 70
8
 71
3
 72
8
 73
4
 74
0
 40
0
 40
0
 40
0
 40
0
 40
1
 40
1
 40
1
 40
1
 10
23.021487
 20
160.065162
 30
0.0
 10
23.152451
 20
165.877989
 30
0.0
 10
22.799999
 20
168.515804
 30
0.0
 10
22.943206
 20
175.204355
 30
0.0
  0
LWPOLYLINE
  5
12b
100
AcDbEntity
  8
Calque_1
 62
7
100
AcDbPolyline
 90
3
 70
0
 10
377.854299
 20
183.728672
 30
0.0
 10
411.530261
 20
183.194137
 30
0.0
 10
411.262959
 20
183.194125
 30
0.0
  0
SPLINE
  5
12c
100
AcDbEntity
  8
Calque_1
 62
7
100
AcDbSpline
 70
8
 71
3
 72
8
 73
4
 74
0
 40
0
 40
0
 40
0
 40
0
 40
1
 40
1
 40
1
 40
1
 10
43.997211
 20
175.631540
 30
0.0
 10
44.812987
 20
175.652218
 30
0.0
 10
44.870744
 20
176.640359
 30
0.0
 10
44.870744
 20
176.640359
 30
0.0
  0
SPLINE
  5
12d
100
AcDbEntity
  8
Calque_1
 62
7
100
AcDbSpline
 70
8
 71
3
 72
8
 73
4
 74
0
 40
0
 40
0
 40
0
 40
0
 40
1
 40
1
 40
1
 40
1
 10
44.870744
 20
176.640359
 30
0.0
 10
46.024303
 20
179.606624
 30
0.0
 10
48.488384
 20
180.293376
 30
0.0
 10
52.115573
 20
181.572637
 30
0.0
  0
SPLINE
  5
12e
100
AcDbEntity
  8
Calque_1
 62
7
100
AcDbSpline
 70
8
 71
3
 72
8
 73
4
 74
0
 40
0
 40
0
 40
0
 40
0
 40
1
 40
1
 40
1
 40
1
 10
52.115573
 20
181.572637
 30
0.0
 10
59.790113
 20
184.279720
 30
0.0
 10
69.893801
 20
184.721395
 30
0.0
 10
80.068903
 20
184.910382
 30
0.0
  0
SPLINE
  5
12f
100
AcDbEntity
  8
Calque_1
 62
7
100
AcDbSpline
 70
8
 71
3
 72
8
 73
4
 74
0
 40
0
 40
0
 40
0
 40
0
 40
1
 40
1
 40
1
 40
1
 10
80.068903
 20
184.910382
 30
0.0
 10
111.925520
 20
185.006322
 30
0.0
 10
141.085157
 20
182.314517
 30
0.0
 10
173.473006
 20
177.996121
 30
0.0
  0
LWPOLYLINE
  5
130
100
AcDbEntity
  8
Calque_1
 62
7
100
AcDbPolyline
 90
2
 70
0
 10
22.943206
 20
175.204355
 30
0.0
 10
43.997211
 20
175.631540
 30
0.0
  0
SPLINE
  5
131
100
AcDbEntity
  8
Calque_1
 62
7
100
AcDbSpline
 70
8
 71
3
 72
8
 73
4
 74
0
 40
0
 40
0
 40
0
 40
0
 40
1
 40
1
 40
1
 40
1
 10
207.484765
 20
177.823329
 30
0.0
 10
207.514180
 20
171.798667
 30
0.0
 10
207.355784
 20
165.800463
 30
0.0
 10
207.359879
 20
160.273171
 30
0.0
  0
LWPOLYLINE
  5
132
100
AcDbEntity
  8
Calque_1
 62
7
100
AcDbPolyline
 90
2
 70
0
 10
173.473006
 20
177.996121
 30
0.0
 10
207.484765
 20
177.823329
 30
0.0
  0
LWPOLYLINE
  5
133
100
AcDbEntity
  8
Calque_1
 62
7
100
AcDbPolyline
 90
2
 70
0
 10
207.359879
 20
160.273171
 30
0.0
 10
143.255418
 20
160.263661
 30
0.0
  0
SPLINE
  5
134
100
AcDbEntity
  8
Calque_1
 62
7
100
AcDbSpline
 70
8
 71
3
 72
8
 73
4
 74
0
 40
0
 40
0
 40
0
 40
0
 40
1
 40
1
 40
1
 40
1
 10
371.230302
 20
175.767786
 30
0.0
 10
370.027601
 20
173.267170
 30
0.0
 10
363.412241
 20
173.260618
 30
0.0
 10
361.399036
 20
173.418834
 30
0.0
  0
LWPOLYLINE
  5
135
100
AcDbEntity
  8
Calque_1
 62
7
100
AcDbPolyline
 90
1
 70
1
 10
340.520666
 20
193.030693
 30
0.0
  0
LWPOLYLINE
  5
136
100
AcDbEntity
  8
Calque_1
 62
7
100
AcDbPolyline
 90
6
 70
0
 10
361.399036
 20
173.418834
 30
0.0
 10
353.649789
 20
173.574891
 30
0.0
 10
339.724956
 20
174.084414
 30
0.0
 10
293.865343
 20
175.848649
 30
0.0
 10
242.317274
 20
178.257822
 30
0.0
 10
207.281307
 20
177.797075
 30
0.0
  0
SPLINE
  5
137
100
AcDbEntity
  8
Calque_1
 62
7
100
AcDbSpline
 70
8
 71
3
 72
8
 73
4
 74
0
 40
0
 40
0
 40
0
 40
0
 40
1
 40
1
 40
1
 40
1
 10
392.026784
 20
160.439201
 30
0.0
 10
392.142644
 20
168.779927
 30
0.0
 10
392.278521
 20
168.627127
 30
0.0
 10
392.192289
 20
175.435805
 30
0.0
  0
LWPOLYLINE
  5
138
100
AcDbEntity
  8
Calque_1
 62
7
100
AcDbPolyline
 90
2
 70
0
 10
207.338597
 20
160.339120
 30
0.0
 10
392.026784
 20
160.439201
 30
0.0
  0
LWPOLYLINE
  5
139
100
AcDbEntity
  8
Calque_1
 62
7
100
AcDbPolyline
 90
2
 70
0
 10
392.192289
 20
175.435805
 30
0.0
 10
371.147035
 20
175.761082
 30
0.0
  0
LWPOLYLINE
  5
13a
100
AcDbEntity
  8
Calque_1
 62
1
100
AcDbPolyline
 90
4
 70
1
 10
23.055529
 20
160.228264
 30
0.0
 10
143.055524
 20
160.228265
 30
0.0
 10
143.055524
 20
140.228265
 30
0.0
 10
23.055529
 20
140.228265
 30
0.0
  0
ENDSEC
  0
SECTION
  2
OBJECTS
  0
DICTIONARY
  5
C
330
0
100
AcDbDictionary
  3
ACAD_GROUP
350
D
  3
ACAD_MLINESTYLE
350
17
  0
DICTIONARY
  5
D
330
C
100
AcDbDictionary
  0
DICTIONARY
  5
1A
330
C
100
AcDbDictionary
  0
DICTIONARY
  5
17
330
C
100
AcDbDictionary
  3
STANDARD
350
18
  0
DICTIONARY
  5
19
330
C
100
AcDbDictionary
  0
ENDSEC
  0
EOF
