  0
SECTION
  2
HEADER
  9
$ACADVER
  1
AC1021
  9
$ACADMAINTVER
 70
    25
  9
$DWGCODEPAGE
  3
ANSI_1252
  9
$INSBASE
 10
0.0
 20
0.0
 30
0.0
  9
$EXTMIN
 10
-131.358
 20
-98.0294
 30
0.0
  9
$EXTMAX
 10
130.3382
 20
100.1668
 30
0.0
  9
$LIMMIN
 10
0.0
 20
0.0
  9
$LIMMAX
 10
12.0
 20
9.0
  9
$ORTHOMODE
 70
     0
  9
$REGENMODE
 70
     1
  9
$FILLMODE
 70
     1
  9
$QTEXTMODE
 70
     0
  9
$MIRRTEXT
 70
     1
  9
$LTSCALE
 40
1.0
  9
$ATTMODE
 70
     1
  9
$TEXTSIZE
 40
0.2
  9
$TRACEWID
 40
0.05
  9
$TEXTSTYLE
  7
Standard
  9
$CLAYER
  8
0
  9
$CELTYPE
  6
ByLayer
  9
$CECOLOR
 62
   256
  9
$CELTSCALE
 40
1.0
  9
$DISPSILH
 70
     0
  9
$DIMSCALE
 40
1.0
  9
$DIMASZ
 40
0.18
  9
$DIMEXO
 40
0.0625
  9
$DIMDLI
 40
0.38
  9
$DIMRND
 40
0.0
  9
$DIMDLE
 40
0.0
  9
$DIMEXE
 40
0.18
  9
$DIMTP
 40
0.0
  9
$DIMTM
 40
0.0
  9
$DIMTXT
 40
0.18
  9
$DIMCEN
 40
0.09
  9
$DIMTSZ
 40
0.0
  9
$DIMTOL
 70
     0
  9
$DIMLIM
 70
     0
  9
$DIMTIH
 70
     1
  9
$DIMTOH
 70
     1
  9
$DIMSE1
 70
     0
  9
$DIMSE2
 70
     0
  9
$DIMTAD
 70
     0
  9
$DIMZIN
 70
     0
  9
$DIMBLK
  1

  9
$DIMASO
 70
     1
  9
$DIMSHO
 70
     1
  9
$DIMPOST
  1

  9
$DIMAPOST
  1

  9
$DIMALT
 70
     0
  9
$DIMALTD
 70
     2
  9
$DIMALTF
 40
25.4
  9
$DIMLFAC
 40
1.0
  9
$DIMTOFL
 70
     0
  9
$DIMTVP
 40
0.0
  9
$DIMTIX
 70
     0
  9
$DIMSOXD
 70
     0
  9
$DIMSAH
 70
     0
  9
$DIMBLK1
  1

  9
$DIMBLK2
  1

  9
$DIMSTYLE
  2
Standard
  9
$DIMCLRD
 70
     0
  9
$DIMCLRE
 70
     0
  9
$DIMCLRT
 70
     0
  9
$DIMTFAC
 40
1.0
  9
$DIMGAP
 40
0.09
  9
$DIMJUST
 70
     0
  9
$DIMSD1
 70
     0
  9
$DIMSD2
 70
     0
  9
$DIMTOLJ
 70
     1
  9
$DIMTZIN
 70
     0
  9
$DIMALTZ
 70
     0
  9
$DIMALTTZ
 70
     0
  9
$DIMUPT
 70
     0
  9
$DIMDEC
 70
     4
  9
$DIMTDEC
 70
     4
  9
$DIMALTU
 70
     2
  9
$DIMALTTD
 70
     2
  9
$DIMTXSTY
  7
Standard
  9
$DIMAUNIT
 70
     0
  9
$DIMADEC
 70
     0
  9
$DIMALTRND
 40
0.0
  9
$DIMAZIN
 70
     0
  9
$DIMDSEP
 70
    46
  9
$DIMATFIT
 70
     3
  9
$DIMFRAC
 70
     0
  9
$DIMLDRBLK
  1

  9
$DIMLUNIT
 70
     2
  9
$DIMLWD
 70
    -2
  9
$DIMLWE
 70
    -2
  9
$DIMTMOVE
 70
     0
  9
$DIMFXL
 40
1.0
  9
$DIMFXLON
 70
     0
  9
$DIMJOGANG
 40
0.7853981633974483
  9
$DIMTFILL
 70
     0
  9
$DIMTFILLCLR
 70
     0
  9
$DIMARCSYM
 70
     0
  9
$DIMLTYPE
  6

  9
$DIMLTEX1
  6

  9
$DIMLTEX2
  6

  9
$LUNITS
 70
     2
  9
$LUPREC
 70
     4
  9
$SKETCHINC
 40
0.1
  9
$FILLETRAD
 40
0.5
  9
$AUNITS
 70
     0
  9
$AUPREC
 70
     0
  9
$MENU
  1
.
  9
$ELEVATION
 40
0.0
  9
$PELEVATION
 40
0.0
  9
$THICKNESS
 40
0.0
  9
$LIMCHECK
 70
     0
  9
$CHAMFERA
 40
0.5
  9
$CHAMFERB
 40
0.5
  9
$CHAMFERC
 40
1.0
  9
$CHAMFERD
 40
0.0
  9
$SKPOLY
 70
     0
  9
$TDCREATE
 40
2457112.776232303
  9
$TDUCREATE
 40
2457112.69289897
  9
$TDUPDATE
 40
2457112.776232662
  9
$TDUUPDATE
 40
2457112.692899329
  9
$TDINDWG
 40
0.0000000116
  9
$TDUSRTIMER
 40
0.0000000116
  9
$USRTIMER
 70
     1
  9
$ANGBASE
 50
0.0
  9
$ANGDIR
 70
     0
  9
$PDMODE
 70
     0
  9
$PDSIZE
 40
0.0
  9
$PLINEWID
 40
0.0
  9
$SPLFRAME
 70
     0
  9
$SPLINETYPE
 70
     6
  9
$SPLINESEGS
 70
     8
  9
$HANDSEED
  5
1A4
  9
$SURFTAB1
 70
     6
  9
$SURFTAB2
 70
     6
  9
$SURFTYPE
 70
     6
  9
$SURFU
 70
     6
  9
$SURFV
 70
     6
  9
$UCSBASE
  2

  9
$UCSNAME
  2

  9
$UCSORG
 10
0.0
 20
0.0
 30
0.0
  9
$UCSXDIR
 10
1.0
 20
0.0
 30
0.0
  9
$UCSYDIR
 10
0.0
 20
1.0
 30
0.0
  9
$UCSORTHOREF
  2

  9
$UCSORTHOVIEW
 70
     0
  9
$UCSORGTOP
 10
0.0
 20
0.0
 30
0.0
  9
$UCSORGBOTTOM
 10
0.0
 20
0.0
 30
0.0
  9
$UCSORGLEFT
 10
0.0
 20
0.0
 30
0.0
  9
$UCSORGRIGHT
 10
0.0
 20
0.0
 30
0.0
  9
$UCSORGFRONT
 10
0.0
 20
0.0
 30
0.0
  9
$UCSORGBACK
 10
0.0
 20
0.0
 30
0.0
  9
$PUCSBASE
  2

  9
$PUCSNAME
  2

  9
$PUCSORG
 10
0.0
 20
0.0
 30
0.0
  9
$PUCSXDIR
 10
1.0
 20
0.0
 30
0.0
  9
$PUCSYDIR
 10
0.0
 20
1.0
 30
0.0
  9
$PUCSORTHOREF
  2

  9
$PUCSORTHOVIEW
 70
     0
  9
$PUCSORGTOP
 10
0.0
 20
0.0
 30
0.0
  9
$PUCSORGBOTTOM
 10
0.0
 20
0.0
 30
0.0
  9
$PUCSORGLEFT
 10
0.0
 20
0.0
 30
0.0
  9
$PUCSORGRIGHT
 10
0.0
 20
0.0
 30
0.0
  9
$PUCSORGFRONT
 10
0.0
 20
0.0
 30
0.0
  9
$PUCSORGBACK
 10
0.0
 20
0.0
 30
0.0
  9
$USERI1
 70
     0
  9
$USERI2
 70
     0
  9
$USERI3
 70
     0
  9
$USERI4
 70
     0
  9
$USERI5
 70
     0
  9
$USERR1
 40
0.0
  9
$USERR2
 40
0.0
  9
$USERR3
 40
0.0
  9
$USERR4
 40
0.0
  9
$USERR5
 40
0.0
  9
$WORLDVIEW
 70
     1
  9
$SHADEDGE
 70
     3
  9
$SHADEDIF
 70
    70
  9
$TILEMODE
 70
     1
  9
$MAXACTVP
 70
    64
  9
$PINSBASE
 10
0.0
 20
0.0
 30
0.0
  9
$PLIMCHECK
 70
     0
  9
$PEXTMIN
 10
1.000000000000000E+20
 20
1.000000000000000E+20
 30
1.000000000000000E+20
  9
$PEXTMAX
 10
-1.000000000000000E+20
 20
-1.000000000000000E+20
 30
-1.000000000000000E+20
  9
$PLIMMIN
 10
0.0
 20
0.0
  9
$PLIMMAX
 10
12.0
 20
9.0
  9
$UNITMODE
 70
     0
  9
$VISRETAIN
 70
     1
  9
$PLINEGEN
 70
     0
  9
$PSLTSCALE
 70
     1
  9
$TREEDEPTH
 70
  3020
  9
$CMLSTYLE
  2
Standard
  9
$CMLJUST
 70
     0
  9
$CMLSCALE
 40
1.0
  9
$PROXYGRAPHICS
 70
     1
  9
$MEASUREMENT
 70
     0
  9
$CELWEIGHT
370
    -1
  9
$ENDCAPS
280
     0
  9
$JOINSTYLE
280
     0
  9
$LWDISPLAY
290
     0
  9
$INSUNITS
 70
     4
  9
$HYPERLINKBASE
  1

  9
$STYLESHEET
  1

  9
$XEDIT
290
     1
  9
$CEPSNTYPE
380
     0
  9
$PSTYLEMODE
290
     1
  9
$FINGERPRINTGUID
  2
{2F300975-3836-410D-AEA4-DAA094235332}
  9
$VERSIONGUID
  2
{FAEB1C32-E019-11D5-929B-00C0DF256EC4}
  9
$EXTNAMES
290
     1
  9
$PSVPSCALE
 40
0.0
  9
$OLESTARTUP
290
     0
  9
$SORTENTS
280
   127
  9
$INDEXCTL
280
     0
  9
$HIDETEXT
280
     1
  9
$XCLIPFRAME
290
     0
  9
$HALOGAP
280
     0
  9
$OBSCOLOR
 70
   257
  9
$OBSLTYPE
280
     0
  9
$INTERSECTIONDISPLAY
280
     0
  9
$INTERSECTIONCOLOR
 70
   257
  9
$DIMASSOC
280
     2
  9
$PROJECTNAME
  1

  9
$CAMERADISPLAY
290
     0
  9
$LENSLENGTH
 40
50.0
  9
$CAMERAHEIGHT
 40
0.0
  9
$STEPSPERSEC
 40
2.0
  9
$STEPSIZE
 40
6.0
  9
$3DDWFPREC
 40
2.0
  9
$PSOLWIDTH
 40
0.25
  9
$PSOLHEIGHT
 40
4.0
  9
$LOFTANG1
 40
1.570796326794897
  9
$LOFTANG2
 40
1.570796326794897
  9
$LOFTMAG1
 40
0.0
  9
$LOFTMAG2
 40
0.0
  9
$LOFTPARAM
 70
     7
  9
$LOFTNORMALS
280
     1
  9
$LATITUDE
 40
37.795
  9
$LONGITUDE
 40
-122.394
  9
$NORTHDIRECTION
 40
0.0
  9
$TIMEZONE
 70
 -8000
  9
$LIGHTGLYPHDISPLAY
280
     1
  9
$TILEMODELIGHTSYNCH
280
     1
  9
$SOLIDHIST
280
     1
  9
$SHOWHIST
280
     1
  9
$DWFFRAME
280
     2
  9
$DGNFRAME
280
     2
  9
$REALWORLDSCALE
290
     1
  9
$INTERFERECOLOR
 62
   256
  9
$CSHADOW
280
     0
  9
$SHADOWPLANELOCATION
 40
0.0
  0
ENDSEC
  0
SECTION
  2
CLASSES
  0
CLASS
  1
ACDBDICTIONARYWDFLT
  2
AcDbDictionaryWithDefault
  3
ObjectDBX Classes
 90
        0
 91
        4
280
     0
281
     0
  0
CLASS
  1
VISUALSTYLE
  2
AcDbVisualStyle
  3
ObjectDBX Classes
 90
     4095
 91
        4
280
     0
281
     0
  0
CLASS
  1
MATERIAL
  2
AcDbMaterial
  3
ObjectDBX Classes
 90
     1153
 91
        4
280
     0
281
     0
  0
ENDSEC
  0
SECTION
  2
TABLES
  0
TABLE
  2
VPORT
  5
8
330
0
100
AcDbSymbolTable
 70
     1
  0
VPORT
  5
29
330
8
100
AcDbSymbolTableRecord
100
AcDbViewportTableRecord
  2
*Active
 70
     0
 10
0.0
 20
0.0
 11
1.0
 21
1.0
 12
10.42990654205607
 22
4.5
 13
0.0
 23
0.0
 14
0.5
 24
0.5
 15
0.5
 25
0.5
 16
0.0
 26
0.0
 36
1.0
 17
0.0
 27
0.0
 37
0.0
 40
9.0
 41
1.972972972850329
 42
50.0
 43
0.0
 44
0.0
 50
0.0
 51
0.0
 71
     0
 72
   100
 73
     1
 74
     3
 75
     0
 76
     0
 77
     0
 78
     0
281
     0
 65
     1
110
0.0
120
0.0
130
0.0
111
1.0
121
0.0
131
0.0
112
0.0
122
1.0
132
0.0
 79
     0
146
0.0
 60
     3
 61
     5
292
     1
282
     1
141
0.0
142
0.0
 63
   250
  0
ENDTAB
  0
TABLE
  2
LTYPE
  5
5
330
0
100
AcDbSymbolTable
 70
     1
  0
LTYPE
  5
14
330
5
100
AcDbSymbolTableRecord
100
AcDbLinetypeTableRecord
  2
ByBlock
 70
     0
  3

 72
    65
 73
     0
 40
0.0
  0
LTYPE
  5
15
330
5
100
AcDbSymbolTableRecord
100
AcDbLinetypeTableRecord
  2
ByLayer
 70
     0
  3

 72
    65
 73
     0
 40
0.0
  0
LTYPE
  5
16
330
5
100
AcDbSymbolTableRecord
100
AcDbLinetypeTableRecord
  2
Continuous
 70
     0
  3
Solid line
 72
    65
 73
     0
 40
0.0
  0
ENDTAB
  0
TABLE
  2
LAYER
  5
2
330
0
100
AcDbSymbolTable
 70
     2
  0
LAYER
  5
10
330
2
100
AcDbSymbolTableRecord
100
AcDbLayerTableRecord
  2
0
 70
     0
 62
     7
  6
Continuous
370
    -3
390
F
347
3E
  0
LAYER
  5
40
330
2
100
AcDbSymbolTableRecord
100
AcDbLayerTableRecord
  2
Plan 1
 70
     0
 62
     7
  6
Continuous
370
    -3
390
F
347
3E
  0
ENDTAB
  0
TABLE
  2
STYLE
  5
3
330
0
100
AcDbSymbolTable
 70
     1
  0
STYLE
  5
11
330
3
100
AcDbSymbolTableRecord
100
AcDbTextStyleTableRecord
  2
Standard
 70
     0
 40
0.0
 41
1.0
 50
0.0
 71
     0
 42
0.2
  3
txt
  4

  0
ENDTAB
  0
TABLE
  2
VIEW
  5
6
330
0
100
AcDbSymbolTable
 70
     0
  0
ENDTAB
  0
TABLE
  2
UCS
  5
7
330
0
100
AcDbSymbolTable
 70
     0
  0
ENDTAB
  0
TABLE
  2
APPID
  5
9
330
0
100
AcDbSymbolTable
 70
     2
  0
APPID
  5
12
330
9
100
AcDbSymbolTableRecord
100
AcDbRegAppTableRecord
  2
ACAD
 70
     0
  0
APPID
  5
3F
330
9
100
AcDbSymbolTableRecord
100
AcDbRegAppTableRecord
  2
ODA
 70
     0
  0
ENDTAB
  0
TABLE
  2
DIMSTYLE
  5
A
330
0
100
AcDbSymbolTable
 70
     1
100
AcDbDimStyleTable
  0
DIMSTYLE
105
27
330
A
100
AcDbSymbolTableRecord
100
AcDbDimStyleTableRecord
  2
Standard
 70
     0
178
     0
340
11
  0
ENDTAB
  0
TABLE
  2
BLOCK_RECORD
  5
1
330
0
100
AcDbSymbolTable
 70
     1
  0
BLOCK_RECORD
  5
1F
330
1
100
AcDbSymbolTableRecord
100
AcDbBlockTableRecord
  2
*Model_Space
340
22
 70
     0
280
     1
281
     0
  0
BLOCK_RECORD
  5
1B
330
1
100
AcDbSymbolTableRecord
100
AcDbBlockTableRecord
  2
*Paper_Space
340
1E
 70
     0
280
     1
281
     0
  0
BLOCK_RECORD
  5
23
330
1
100
AcDbSymbolTableRecord
100
AcDbBlockTableRecord
  2
*Paper_Space0
340
26
 70
     0
280
     1
281
     0
  0
ENDTAB
  0
ENDSEC
  0
SECTION
  2
BLOCKS
  0
BLOCK
  5
20
330
1F
100
AcDbEntity
  8
0
100
AcDbBlockBegin
  2
*Model_Space
 70
     0
 10
0.0
 20
0.0
 30
0.0
  3
*Model_Space
  1

  0
ENDBLK
  5
21
330
1F
100
AcDbEntity
  8
0
100
AcDbBlockEnd
  0
BLOCK
  5
1C
330
1B
100
AcDbEntity
 67
     1
  8
0
100
AcDbBlockBegin
  2
*Paper_Space
 70
     0
 10
0.0
 20
0.0
 30
0.0
  3
*Paper_Space
  1

  0
ENDBLK
  5
1D
330
1B
100
AcDbEntity
 67
     1
  8
0
100
AcDbBlockEnd
  0
BLOCK
  5
24
330
23
100
AcDbEntity
  8
0
100
AcDbBlockBegin
  2
*Paper_Space0
 70
     0
 10
0.0
 20
0.0
 30
0.0
  3
*Paper_Space0
  1

  0
ENDBLK
  5
25
330
23
100
AcDbEntity
  8
0
100
AcDbBlockEnd
  0
ENDSEC
  0
SECTION
  2
ENTITIES
  0
SPLINE
  5
41
330
1F
100
AcDbEntity
  8
Plan 1
370
     9
100
AcDbSpline
210
0.0
220
0.0
230
1.0
 70
    11
 71
     3
 72
    20
 73
    16
 74
     0
 42
0.0000000001
 43
0.0000000001
 12
1.0
 22
0.0
 32
0.0
 13
1.0
 23
0.0
 33
0.0
 40
0.0
 40
0.0
 40
0.0
 40
0.0
 40
0.2
 40
0.2
 40
0.2
 40
0.2
 40
0.4
 40
0.4
 40
0.4
 40
0.4
 40
0.6
 40
0.6
 40
0.6
 40
0.6
 40
1.0
 40
1.0
 40
1.0
 40
1.0
 10
52.5885
 20
36.1383
 30
0.0
 10
50.6252
 20
36.1383
 30
0.0
 10
49.0337
 20
34.5468
 30
0.0
 10
49.0337
 20
32.5835
 30
0.0
 10
49.0337
 20
32.5835
 30
0.0
 10
49.0337
 20
30.6203
 30
0.0
 10
50.6252
 20
29.0288
 30
0.0
 10
52.5884
 20
29.0288
 30
0.0
 10
52.5884
 20
29.0288
 30
0.0
 10
54.5517
 20
29.0288
 30
0.0
 10
56.1432
 20
30.6203
 30
0.0
 10
56.1432
 20
32.5835
 30
0.0
 10
56.1432
 20
32.5835
 30
0.0
 10
56.1432
 20
34.5468
 30
0.0
 10
54.5517
 20
36.1383
 30
0.0
 10
52.5885
 20
36.1383
 30
0.0
  0
SPLINE
  5
42
330
1F
100
AcDbEntity
  8
Plan 1
370
     9
100
AcDbSpline
210
0.0
220
0.0
230
1.0
 70
    24
 71
     3
 72
     8
 73
     4
 74
     0
 42
0.0000000001
 43
0.0000000001
 12
1.0
 22
0.0
 32
0.0
 13
1.0
 23
0.0
 33
0.0
 40
0.0
 40
0.0
 40
0.0
 40
0.0
 40
1.0
 40
1.0
 40
1.0
 40
1.0
 10
56.1046
 20
36.8544
 30
0.0
 10
56.1046
 20
36.8544
 30
0.0
 10
49.0723
 20
36.8544
 30
0.0
 10
49.0723
 20
36.8544
 30
0.0
  0
SPLINE
  5
43
330
1F
100
AcDbEntity
  8
Plan 1
370
     9
100
AcDbSpline
210
0.0
220
0.0
230
1.0
 70
    24
 71
     3
 72
     8
 73
     4
 74
     0
 42
0.0000000001
 43
0.0000000001
 12
1.0
 22
0.0
 32
0.0
 13
1.0
 23
0.0
 33
0.0
 40
0.0
 40
0.0
 40
0.0
 40
0.0
 40
1.0
 40
1.0
 40
1.0
 40
1.0
 10
56.8546
 20
29.0627
 30
0.0
 10
56.8546
 20
29.0627
 30
0.0
 10
56.8546
 20
36.1044
 30
0.0
 10
56.8546
 20
36.1044
 30
0.0
  0
SPLINE
  5
44
330
1F
100
AcDbEntity
  8
Plan 1
370
     9
100
AcDbSpline
210
0.0
220
0.0
230
1.0
 70
    24
 71
     3
 72
     8
 73
     4
 74
     0
 42
0.0000000001
 43
0.0000000001
 12
1.0
 22
0.0
 32
0.0
 13
1.0
 23
0.0
 33
0.0
 40
0.0
 40
0.0
 40
0.0
 40
0.0
 40
1.0
 40
1.0
 40
1.0
 40
1.0
 10
49.0723
 20
28.3127
 30
0.0
 10
49.0723
 20
28.3127
 30
0.0
 10
56.1046
 20
28.3127
 30
0.0
 10
56.1046
 20
28.3127
 30
0.0
  0
SPLINE
  5
45
330
1F
100
AcDbEntity
  8
Plan 1
370
     9
100
AcDbSpline
210
0.0
220
0.0
230
1.0
 70
     8
 71
     3
 72
    12
 73
     8
 74
     0
 42
0.0000000001
 43
0.0000000001
 12
1.0
 22
0.0
 32
0.0
 13
1.0
 23
0.0
 33
0.0
 40
0.0
 40
0.0
 40
0.0
 40
0.0
 40
0.3333333333333333
 40
0.3333333333333333
 40
0.3333333333333333
 40
0.3333333333333333
 40
1.0
 40
1.0
 40
1.0
 40
1.0
 10
48.3223
 20
29.0627
 30
0.0
 10
48.3223
 20
28.8638
 30
0.0
 10
48.4013
 20
28.673
 30
0.0
 10
48.542
 20
28.5323
 30
0.0
 10
48.542
 20
28.5323
 30
0.0
 10
48.6826
 20
28.3917
 30
0.0
 10
48.8734
 20
28.3127
 30
0.0
 10
49.0723
 20
28.3127
 30
0.0
  0
SPLINE
  5
46
330
1F
100
AcDbEntity
  8
Plan 1
370
     9
100
AcDbSpline
210
0.0
220
0.0
230
1.0
 70
    24
 71
     3
 72
     8
 73
     4
 74
     0
 42
0.0000000001
 43
0.0000000001
 12
1.0
 22
0.0
 32
0.0
 13
1.0
 23
0.0
 33
0.0
 40
0.0
 40
0.0
 40
0.0
 40
0.0
 40
1.0
 40
1.0
 40
1.0
 40
1.0
 10
48.3223
 20
36.1044
 30
0.0
 10
48.3223
 20
36.1044
 30
0.0
 10
48.3223
 20
29.0627
 30
0.0
 10
48.3223
 20
29.0627
 30
0.0
  0
SPLINE
  5
47
330
1F
100
AcDbEntity
  8
Plan 1
370
     9
100
AcDbSpline
210
0.0
220
0.0
230
1.0
 70
     8
 71
     3
 72
    12
 73
     8
 74
     0
 42
0.0000000001
 43
0.0000000001
 12
1.0
 22
0.0
 32
0.0
 13
1.0
 23
0.0
 33
0.0
 40
0.0
 40
0.0
 40
0.0
 40
0.0
 40
0.3333333333333333
 40
0.3333333333333333
 40
0.3333333333333333
 40
0.3333333333333333
 40
1.0
 40
1.0
 40
1.0
 40
1.0
 10
49.0723
 20
36.8544
 30
0.0
 10
48.8734
 20
36.8544
 30
0.0
 10
48.6826
 20
36.7754
 30
0.0
 10
48.542
 20
36.6347
 30
0.0
 10
48.542
 20
36.6347
 30
0.0
 10
48.4013
 20
36.4941
 30
0.0
 10
48.3223
 20
36.3033
 30
0.0
 10
48.3223
 20
36.1044
 30
0.0
  0
SPLINE
  5
48
330
1F
100
AcDbEntity
  8
Plan 1
370
     9
100
AcDbSpline
210
0.0
220
0.0
230
1.0
 70
     8
 71
     3
 72
     8
 73
     4
 74
     0
 42
0.0000000001
 43
0.0000000001
 12
1.0
 22
0.0
 32
0.0
 13
1.0
 23
0.0
 33
0.0
 40
0.0
 40
0.0
 40
0.0
 40
0.0
 40
1.0
 40
1.0
 40
1.0
 40
1.0
 10
56.8546
 20
36.1044
 30
0.0
 10
56.8546
 20
36.5186
 30
0.0
 10
56.5188
 20
36.8544
 30
0.0
 10
56.1046
 20
36.8544
 30
0.0
  0
SPLINE
  5
49
330
1F
100
AcDbEntity
  8
Plan 1
370
     9
100
AcDbSpline
210
0.0
220
0.0
230
1.0
 70
     8
 71
     3
 72
    12
 73
     8
 74
     0
 42
0.0000000001
 43
0.0000000001
 12
1.0
 22
0.0
 32
0.0
 13
1.0
 23
0.0
 33
0.0
 40
0.0
 40
0.0
 40
0.0
 40
0.0
 40
0.3333333333333333
 40
0.3333333333333333
 40
0.3333333333333333
 40
0.3333333333333333
 40
1.0
 40
1.0
 40
1.0
 40
1.0
 10
56.1046
 20
28.3127
 30
0.0
 10
56.3035
 20
28.3127
 30
0.0
 10
56.4943
 20
28.3917
 30
0.0
 10
56.635
 20
28.5323
 30
0.0
 10
56.635
 20
28.5323
 30
0.0
 10
56.7756
 20
28.673
 30
0.0
 10
56.8546
 20
28.8638
 30
0.0
 10
56.8546
 20
29.0627
 30
0.0
  0
SPLINE
  5
4A
330
1F
100
AcDbEntity
  8
Plan 1
370
     9
100
AcDbSpline
210
0.0
220
0.0
230
1.0
 70
    24
 71
     3
 72
     8
 73
     4
 74
     0
 42
0.0000000001
 43
0.0000000001
 12
1.0
 22
0.0
 32
0.0
 13
1.0
 23
0.0
 33
0.0
 40
0.0
 40
0.0
 40
0.0
 40
0.0
 40
1.0
 40
1.0
 40
1.0
 40
1.0
 10
57.088
 20
16.6866
 30
0.0
 10
57.088
 20
16.6866
 30
0.0
 10
58.9424
 20
16.6866
 30
0.0
 10
58.9424
 20
16.6866
 30
0.0
  0
SPLINE
  5
4B
330
1F
100
AcDbEntity
  8
Plan 1
370
     9
100
AcDbSpline
210
0.0
220
0.0
230
1.0
 70
     8
 71
     3
 72
    12
 73
     8
 74
     0
 42
0.0000000001
 43
0.0000000001
 12
1.0
 22
0.0
 32
0.0
 13
1.0
 23
0.0
 33
0.0
 40
0.0
 40
0.0
 40
0.0
 40
0.0
 40
0.3333333333333333
 40
0.3333333333333333
 40
0.3333333333333333
 40
0.3333333333333333
 40
1.0
 40
1.0
 40
1.0
 40
1.0
 10
60.0279
 20
16.9892
 30
0.0
 10
59.8091
 20
18.0055
 30
0.0
 10
58.9105
 20
18.7311
 30
0.0
 10
57.871
 20
18.7311
 30
0.0
 10
57.871
 20
18.7311
 30
0.0
 10
56.8314
 20
18.7311
 30
0.0
 10
55.9328
 20
18.0055
 30
0.0
 10
55.714
 20
16.9892
 30
0.0
  0
SPLINE
  5
4C
330
1F
100
AcDbEntity
  8
Plan 1
370
     9
100
AcDbSpline
210
0.0
220
0.0
230
1.0
 70
     8
 71
     3
 72
    12
 73
     8
 74
     0
 42
0.0000000001
 43
0.0000000001
 12
1.0
 22
0.0
 32
0.0
 13
1.0
 23
0.0
 33
0.0
 40
0.0
 40
0.0
 40
0.0
 40
0.0
 40
0.3333333333333333
 40
0.3333333333333333
 40
0.3333333333333333
 40
0.3333333333333333
 40
1.0
 40
1.0
 40
1.0
 40
1.0
 10
59.7835
 20
16.6866
 30
0.0
 10
59.8591
 20
16.6866
 30
0.0
 10
59.9306
 20
16.7207
 30
0.0
 10
59.978
 20
16.7795
 30
0.0
 10
59.978
 20
16.7795
 30
0.0
 10
60.0255
 20
16.8383
 30
0.0
 10
60.0438
 20
16.9153
 30
0.0
 10
60.0279
 20
16.9892
 30
0.0
  0
SPLINE
  5
4D
330
1F
100
AcDbEntity
  8
Plan 1
370
     9
100
AcDbSpline
210
0.0
220
0.0
230
1.0
 70
    24
 71
     3
 72
     8
 73
     4
 74
     0
 42
0.0000000001
 43
0.0000000001
 12
1.0
 22
0.0
 32
0.0
 13
1.0
 23
0.0
 33
0.0
 40
0.0
 40
0.0
 40
0.0
 40
0.0
 40
1.0
 40
1.0
 40
1.0
 40
1.0
 10
58.5832
 20
16.6866
 30
0.0
 10
58.5832
 20
16.6866
 30
0.0
 10
59.7835
 20
16.6866
 30
0.0
 10
59.7835
 20
16.6866
 30
0.0
  0
SPLINE
  5
4E
330
1F
100
AcDbEntity
  8
Plan 1
370
     9
100
AcDbSpline
210
0.0
220
0.0
230
1.0
 70
    24
 71
     3
 72
     8
 73
     4
 74
     0
 42
0.0000000001
 43
0.0000000001
 12
1.0
 22
0.0
 32
0.0
 13
1.0
 23
0.0
 33
0.0
 40
0.0
 40
0.0
 40
0.0
 40
0.0
 40
1.0
 40
1.0
 40
1.0
 40
1.0
 10
55.9584
 20
16.6866
 30
0.0
 10
55.9584
 20
16.6866
 30
0.0
 10
57.1588
 20
16.6866
 30
0.0
 10
57.1588
 20
16.6866
 30
0.0
  0
SPLINE
  5
4F
330
1F
100
AcDbEntity
  8
Plan 1
370
     9
100
AcDbSpline
210
0.0
220
0.0
230
1.0
 70
     8
 71
     3
 72
    12
 73
     8
 74
     0
 42
0.0000000001
 43
0.0000000001
 12
1.0
 22
0.0
 32
0.0
 13
1.0
 23
0.0
 33
0.0
 40
0.0
 40
0.0
 40
0.0
 40
0.0
 40
0.3333333333333333
 40
0.3333333333333333
 40
0.3333333333333333
 40
0.3333333333333333
 40
1.0
 40
1.0
 40
1.0
 40
1.0
 10
55.714
 20
16.9892
 30
0.0
 10
55.6981
 20
16.9153
 30
0.0
 10
55.7164
 20
16.8383
 30
0.0
 10
55.7639
 20
16.7795
 30
0.0
 10
55.7639
 20
16.7795
 30
0.0
 10
55.8114
 20
16.7207
 30
0.0
 10
55.8829
 20
16.6866
 30
0.0
 10
55.9584
 20
16.6866
 30
0.0
  0
SPLINE
  5
50
330
1F
100
AcDbEntity
  8
Plan 1
370
     9
100
AcDbSpline
210
0.0
220
0.0
230
1.0
 70
    24
 71
     3
 72
     8
 73
     4
 74
     0
 42
0.0000000001
 43
0.0000000001
 12
1.0
 22
0.0
 32
0.0
 13
1.0
 23
0.0
 33
0.0
 40
0.0
 40
0.0
 40
0.0
 40
0.0
 40
1.0
 40
1.0
 40
1.0
 40
1.0
 10
58.9007
 20
17.2939
 30
0.0
 10
58.9007
 20
17.2939
 30
0.0
 10
59.0889
 20
17.6908
 30
0.0
 10
59.0889
 20
17.6908
 30
0.0
  0
SPLINE
  5
51
330
1F
100
AcDbEntity
  8
Plan 1
370
     9
100
AcDbSpline
210
0.0
220
0.0
230
1.0
 70
    24
 71
     3
 72
     8
 73
     4
 74
     0
 42
0.0000000001
 43
0.0000000001
 12
1.0
 22
0.0
 32
0.0
 13
1.0
 23
0.0
 33
0.0
 40
0.0
 40
0.0
 40
0.0
 40
0.0
 40
1.0
 40
1.0
 40
1.0
 40
1.0
 10
58.9396
 20
17.2939
 30
0.0
 10
58.9396
 20
17.2939
 30
0.0
 10
58.9007
 20
17.2939
 30
0.0
 10
58.9007
 20
17.2939
 30
0.0
  0
SPLINE
  5
52
330
1F
100
AcDbEntity
  8
Plan 1
370
     9
100
AcDbSpline
210
0.0
220
0.0
230
1.0
 70
    24
 71
     3
 72
     8
 73
     4
 74
     0
 42
0.0000000001
 43
0.0000000001
 12
1.0
 22
0.0
 32
0.0
 13
1.0
 23
0.0
 33
0.0
 40
0.0
 40
0.0
 40
0.0
 40
0.0
 40
1.0
 40
1.0
 40
1.0
 40
1.0
 10
58.9999
 20
17.4211
 30
0.0
 10
58.9999
 20
17.4211
 30
0.0
 10
58.9396
 20
17.2939
 30
0.0
 10
58.9396
 20
17.2939
 30
0.0
  0
SPLINE
  5
53
330
1F
100
AcDbEntity
  8
Plan 1
370
     9
100
AcDbSpline
210
0.0
220
0.0
230
1.0
 70
    24
 71
     3
 72
     8
 73
     4
 74
     0
 42
0.0000000001
 43
0.0000000001
 12
1.0
 22
0.0
 32
0.0
 13
1.0
 23
0.0
 33
0.0
 40
0.0
 40
0.0
 40
0.0
 40
0.0
 40
1.0
 40
1.0
 40
1.0
 40
1.0
 10
59.1798
 20
17.4211
 30
0.0
 10
59.1798
 20
17.4211
 30
0.0
 10
58.9999
 20
17.4211
 30
0.0
 10
58.9999
 20
17.4211
 30
0.0
  0
SPLINE
  5
54
330
1F
100
AcDbEntity
  8
Plan 1
370
     9
100
AcDbSpline
210
0.0
220
0.0
230
1.0
 70
    24
 71
     3
 72
     8
 73
     4
 74
     0
 42
0.0000000001
 43
0.0000000001
 12
1.0
 22
0.0
 32
0.0
 13
1.0
 23
0.0
 33
0.0
 40
0.0
 40
0.0
 40
0.0
 40
0.0
 40
1.0
 40
1.0
 40
1.0
 40
1.0
 10
59.2385
 20
17.2939
 30
0.0
 10
59.2385
 20
17.2939
 30
0.0
 10
59.1798
 20
17.4211
 30
0.0
 10
59.1798
 20
17.4211
 30
0.0
  0
SPLINE
  5
55
330
1F
100
AcDbEntity
  8
Plan 1
370
     9
100
AcDbSpline
210
0.0
220
0.0
230
1.0
 70
    24
 71
     3
 72
     8
 73
     4
 74
     0
 42
0.0000000001
 43
0.0000000001
 12
1.0
 22
0.0
 32
0.0
 13
1.0
 23
0.0
 33
0.0
 40
0.0
 40
0.0
 40
0.0
 40
0.0
 40
1.0
 40
1.0
 40
1.0
 40
1.0
 10
59.2772
 20
17.2939
 30
0.0
 10
59.2772
 20
17.2939
 30
0.0
 10
59.2385
 20
17.2939
 30
0.0
 10
59.2385
 20
17.2939
 30
0.0
  0
SPLINE
  5
56
330
1F
100
AcDbEntity
  8
Plan 1
370
     9
100
AcDbSpline
210
0.0
220
0.0
230
1.0
 70
    24
 71
     3
 72
     8
 73
     4
 74
     0
 42
0.0000000001
 43
0.0000000001
 12
1.0
 22
0.0
 32
0.0
 13
1.0
 23
0.0
 33
0.0
 40
0.0
 40
0.0
 40
0.0
 40
0.0
 40
1.0
 40
1.0
 40
1.0
 40
1.0
 10
59.094
 20
17.6908
 30
0.0
 10
59.094
 20
17.6908
 30
0.0
 10
59.2772
 20
17.2939
 30
0.0
 10
59.2772
 20
17.2939
 30
0.0
  0
SPLINE
  5
57
330
1F
100
AcDbEntity
  8
Plan 1
370
     9
100
AcDbSpline
210
0.0
220
0.0
230
1.0
 70
    24
 71
     3
 72
     8
 73
     4
 74
     0
 42
0.0000000001
 43
0.0000000001
 12
1.0
 22
0.0
 32
0.0
 13
1.0
 23
0.0
 33
0.0
 40
0.0
 40
0.0
 40
0.0
 40
0.0
 40
1.0
 40
1.0
 40
1.0
 40
1.0
 10
59.0889
 20
17.6908
 30
0.0
 10
59.0889
 20
17.6908
 30
0.0
 10
59.094
 20
17.6908
 30
0.0
 10
59.094
 20
17.6908
 30
0.0
  0
SPLINE
  5
58
330
1F
100
AcDbEntity
  8
Plan 1
370
     9
100
AcDbSpline
210
0.0
220
0.0
230
1.0
 70
    24
 71
     3
 72
     8
 73
     4
 74
     0
 42
0.0000000001
 43
0.0000000001
 12
1.0
 22
0.0
 32
0.0
 13
1.0
 23
0.0
 33
0.0
 40
0.0
 40
0.0
 40
0.0
 40
0.0
 40
1.0
 40
1.0
 40
1.0
 40
1.0
 10
58.6107
 20
17.2939
 30
0.0
 10
58.6107
 20
17.2939
 30
0.0
 10
58.4224
 20
17.2939
 30
0.0
 10
58.4224
 20
17.2939
 30
0.0
  0
SPLINE
  5
59
330
1F
100
AcDbEntity
  8
Plan 1
370
     9
100
AcDbSpline
210
0.0
220
0.0
230
1.0
 70
    24
 71
     3
 72
     8
 73
     4
 74
     0
 42
0.0000000001
 43
0.0000000001
 12
1.0
 22
0.0
 32
0.0
 13
1.0
 23
0.0
 33
0.0
 40
0.0
 40
0.0
 40
0.0
 40
0.0
 40
1.0
 40
1.0
 40
1.0
 40
1.0
 10
58.6107
 20
17.3346
 30
0.0
 10
58.6107
 20
17.3346
 30
0.0
 10
58.6107
 20
17.2939
 30
0.0
 10
58.6107
 20
17.2939
 30
0.0
  0
SPLINE
  5
5A
330
1F
100
AcDbEntity
  8
Plan 1
370
     9
100
AcDbSpline
210
0.0
220
0.0
230
1.0
 70
    24
 71
     3
 72
     8
 73
     4
 74
     0
 42
0.0000000001
 43
0.0000000001
 12
1.0
 22
0.0
 32
0.0
 13
1.0
 23
0.0
 33
0.0
 40
0.0
 40
0.0
 40
0.0
 40
0.0
 40
1.0
 40
1.0
 40
1.0
 40
1.0
 10
58.458
 20
17.3346
 30
0.0
 10
58.458
 20
17.3346
 30
0.0
 10
58.6107
 20
17.3346
 30
0.0
 10
58.6107
 20
17.3346
 30
0.0
  0
SPLINE
  5
5B
330
1F
100
AcDbEntity
  8
Plan 1
370
     9
100
AcDbSpline
210
0.0
220
0.0
230
1.0
 70
    24
 71
     3
 72
     8
 73
     4
 74
     0
 42
0.0000000001
 43
0.0000000001
 12
1.0
 22
0.0
 32
0.0
 13
1.0
 23
0.0
 33
0.0
 40
0.0
 40
0.0
 40
0.0
 40
0.0
 40
1.0
 40
1.0
 40
1.0
 40
1.0
 10
58.458
 20
17.6908
 30
0.0
 10
58.458
 20
17.6908
 30
0.0
 10
58.458
 20
17.3346
 30
0.0
 10
58.458
 20
17.3346
 30
0.0
  0
SPLINE
  5
5C
330
1F
100
AcDbEntity
  8
Plan 1
370
     9
100
AcDbSpline
210
0.0
220
0.0
230
1.0
 70
    24
 71
     3
 72
     8
 73
     4
 74
     0
 42
0.0000000001
 43
0.0000000001
 12
1.0
 22
0.0
 32
0.0
 13
1.0
 23
0.0
 33
0.0
 40
0.0
 40
0.0
 40
0.0
 40
0.0
 40
1.0
 40
1.0
 40
1.0
 40
1.0
 10
58.4224
 20
17.6908
 30
0.0
 10
58.4224
 20
17.6908
 30
0.0
 10
58.458
 20
17.6908
 30
0.0
 10
58.458
 20
17.6908
 30
0.0
  0
SPLINE
  5
5D
330
1F
100
AcDbEntity
  8
Plan 1
370
     9
100
AcDbSpline
210
0.0
220
0.0
230
1.0
 70
    24
 71
     3
 72
     8
 73
     4
 74
     0
 42
0.0000000001
 43
0.0000000001
 12
1.0
 22
0.0
 32
0.0
 13
1.0
 23
0.0
 33
0.0
 40
0.0
 40
0.0
 40
0.0
 40
0.0
 40
1.0
 40
1.0
 40
1.0
 40
1.0
 10
58.4224
 20
17.2939
 30
0.0
 10
58.4224
 20
17.2939
 30
0.0
 10
58.4224
 20
17.6908
 30
0.0
 10
58.4224
 20
17.6908
 30
0.0
  0
SPLINE
  5
5E
330
1F
100
AcDbEntity
  8
Plan 1
370
     9
100
AcDbSpline
210
0.0
220
0.0
230
1.0
 70
    24
 71
     3
 72
     8
 73
     4
 74
     0
 42
0.0000000001
 43
0.0000000001
 12
1.0
 22
0.0
 32
0.0
 13
1.0
 23
0.0
 33
0.0
 40
0.0
 40
0.0
 40
0.0
 40
0.0
 40
1.0
 40
1.0
 40
1.0
 40
1.0
 10
58.1019
 20
17.2939
 30
0.0
 10
58.1019
 20
17.2939
 30
0.0
 10
58.1019
 20
17.6501
 30
0.0
 10
58.1019
 20
17.6501
 30
0.0
  0
SPLINE
  5
5F
330
1F
100
AcDbEntity
  8
Plan 1
370
     9
100
AcDbSpline
210
0.0
220
0.0
230
1.0
 70
    24
 71
     3
 72
     8
 73
     4
 74
     0
 42
0.0000000001
 43
0.0000000001
 12
1.0
 22
0.0
 32
0.0
 13
1.0
 23
0.0
 33
0.0
 40
0.0
 40
0.0
 40
0.0
 40
0.0
 40
1.0
 40
1.0
 40
1.0
 40
1.0
 10
58.1375
 20
17.2939
 30
0.0
 10
58.1375
 20
17.2939
 30
0.0
 10
58.1019
 20
17.2939
 30
0.0
 10
58.1019
 20
17.2939
 30
0.0
  0
SPLINE
  5
60
330
1F
100
AcDbEntity
  8
Plan 1
370
     9
100
AcDbSpline
210
0.0
220
0.0
230
1.0
 70
    24
 71
     3
 72
     8
 73
     4
 74
     0
 42
0.0000000001
 43
0.0000000001
 12
1.0
 22
0.0
 32
0.0
 13
1.0
 23
0.0
 33
0.0
 40
0.0
 40
0.0
 40
0.0
 40
0.0
 40
1.0
 40
1.0
 40
1.0
 40
1.0
 10
58.1375
 20
17.6501
 30
0.0
 10
58.1375
 20
17.6501
 30
0.0
 10
58.1375
 20
17.2939
 30
0.0
 10
58.1375
 20
17.2939
 30
0.0
  0
SPLINE
  5
61
330
1F
100
AcDbEntity
  8
Plan 1
370
     9
100
AcDbSpline
210
0.0
220
0.0
230
1.0
 70
    24
 71
     3
 72
     8
 73
     4
 74
     0
 42
0.0000000001
 43
0.0000000001
 12
1.0
 22
0.0
 32
0.0
 13
1.0
 23
0.0
 33
0.0
 40
0.0
 40
0.0
 40
0.0
 40
0.0
 40
1.0
 40
1.0
 40
1.0
 40
1.0
 10
58.224
 20
17.6501
 30
0.0
 10
58.224
 20
17.6501
 30
0.0
 10
58.1375
 20
17.6501
 30
0.0
 10
58.1375
 20
17.6501
 30
0.0
  0
SPLINE
  5
62
330
1F
100
AcDbEntity
  8
Plan 1
370
     9
100
AcDbSpline
210
0.0
220
0.0
230
1.0
 70
    24
 71
     3
 72
     8
 73
     4
 74
     0
 42
0.0000000001
 43
0.0000000001
 12
1.0
 22
0.0
 32
0.0
 13
1.0
 23
0.0
 33
0.0
 40
0.0
 40
0.0
 40
0.0
 40
0.0
 40
1.0
 40
1.0
 40
1.0
 40
1.0
 10
58.224
 20
17.6908
 30
0.0
 10
58.224
 20
17.6908
 30
0.0
 10
58.224
 20
17.6501
 30
0.0
 10
58.224
 20
17.6501
 30
0.0
  0
SPLINE
  5
63
330
1F
100
AcDbEntity
  8
Plan 1
370
     9
100
AcDbSpline
210
0.0
220
0.0
230
1.0
 70
    24
 71
     3
 72
     8
 73
     4
 74
     0
 42
0.0000000001
 43
0.0000000001
 12
1.0
 22
0.0
 32
0.0
 13
1.0
 23
0.0
 33
0.0
 40
0.0
 40
0.0
 40
0.0
 40
0.0
 40
1.0
 40
1.0
 40
1.0
 40
1.0
 10
58.0154
 20
17.6908
 30
0.0
 10
58.0154
 20
17.6908
 30
0.0
 10
58.224
 20
17.6908
 30
0.0
 10
58.224
 20
17.6908
 30
0.0
  0
SPLINE
  5
64
330
1F
100
AcDbEntity
  8
Plan 1
370
     9
100
AcDbSpline
210
0.0
220
0.0
230
1.0
 70
    24
 71
     3
 72
     8
 73
     4
 74
     0
 42
0.0000000001
 43
0.0000000001
 12
1.0
 22
0.0
 32
0.0
 13
1.0
 23
0.0
 33
0.0
 40
0.0
 40
0.0
 40
0.0
 40
0.0
 40
1.0
 40
1.0
 40
1.0
 40
1.0
 10
58.0154
 20
17.6501
 30
0.0
 10
58.0154
 20
17.6501
 30
0.0
 10
58.0154
 20
17.6908
 30
0.0
 10
58.0154
 20
17.6908
 30
0.0
  0
SPLINE
  5
65
330
1F
100
AcDbEntity
  8
Plan 1
370
     9
100
AcDbSpline
210
0.0
220
0.0
230
1.0
 70
    24
 71
     3
 72
     8
 73
     4
 74
     0
 42
0.0000000001
 43
0.0000000001
 12
1.0
 22
0.0
 32
0.0
 13
1.0
 23
0.0
 33
0.0
 40
0.0
 40
0.0
 40
0.0
 40
0.0
 40
1.0
 40
1.0
 40
1.0
 40
1.0
 10
58.1019
 20
17.6501
 30
0.0
 10
58.1019
 20
17.6501
 30
0.0
 10
58.0154
 20
17.6501
 30
0.0
 10
58.0154
 20
17.6501
 30
0.0
  0
SPLINE
  5
66
330
1F
100
AcDbEntity
  8
Plan 1
370
     9
100
AcDbSpline
210
0.0
220
0.0
230
1.0
 70
    24
 71
     3
 72
     8
 73
     4
 74
     0
 42
0.0000000001
 43
0.0000000001
 12
1.0
 22
0.0
 32
0.0
 13
1.0
 23
0.0
 33
0.0
 40
0.0
 40
0.0
 40
0.0
 40
0.0
 40
1.0
 40
1.0
 40
1.0
 40
1.0
 10
57.5523
 20
17.2939
 30
0.0
 10
57.5523
 20
17.2939
 30
0.0
 10
57.5167
 20
17.2939
 30
0.0
 10
57.5167
 20
17.2939
 30
0.0
  0
SPLINE
  5
67
330
1F
100
AcDbEntity
  8
Plan 1
370
     9
100
AcDbSpline
210
0.0
220
0.0
230
1.0
 70
    24
 71
     3
 72
     8
 73
     4
 74
     0
 42
0.0000000001
 43
0.0000000001
 12
1.0
 22
0.0
 32
0.0
 13
1.0
 23
0.0
 33
0.0
 40
0.0
 40
0.0
 40
0.0
 40
0.0
 40
1.0
 40
1.0
 40
1.0
 40
1.0
 10
57.5523
 20
17.6908
 30
0.0
 10
57.5523
 20
17.6908
 30
0.0
 10
57.5523
 20
17.2939
 30
0.0
 10
57.5523
 20
17.2939
 30
0.0
  0
SPLINE
  5
68
330
1F
100
AcDbEntity
  8
Plan 1
370
     9
100
AcDbSpline
210
0.0
220
0.0
230
1.0
 70
    24
 71
     3
 72
     8
 73
     4
 74
     0
 42
0.0000000001
 43
0.0000000001
 12
1.0
 22
0.0
 32
0.0
 13
1.0
 23
0.0
 33
0.0
 40
0.0
 40
0.0
 40
0.0
 40
0.0
 40
1.0
 40
1.0
 40
1.0
 40
1.0
 10
57.5167
 20
17.6908
 30
0.0
 10
57.5167
 20
17.6908
 30
0.0
 10
57.5523
 20
17.6908
 30
0.0
 10
57.5523
 20
17.6908
 30
0.0
  0
SPLINE
  5
69
330
1F
100
AcDbEntity
  8
Plan 1
370
     9
100
AcDbSpline
210
0.0
220
0.0
230
1.0
 70
    24
 71
     3
 72
     8
 73
     4
 74
     0
 42
0.0000000001
 43
0.0000000001
 12
1.0
 22
0.0
 32
0.0
 13
1.0
 23
0.0
 33
0.0
 40
0.0
 40
0.0
 40
0.0
 40
0.0
 40
1.0
 40
1.0
 40
1.0
 40
1.0
 10
57.5167
 20
17.2939
 30
0.0
 10
57.5167
 20
17.2939
 30
0.0
 10
57.5167
 20
17.6908
 30
0.0
 10
57.5167
 20
17.6908
 30
0.0
  0
SPLINE
  5
6A
330
1F
100
AcDbEntity
  8
Plan 1
370
     9
100
AcDbSpline
210
0.0
220
0.0
230
1.0
 70
     8
 71
     3
 72
    20
 73
    16
 74
     0
 42
0.0000000001
 43
0.0000000001
 12
1.0
 22
0.0
 32
0.0
 13
1.0
 23
0.0
 33
0.0
 40
0.0
 40
0.0
 40
0.0
 40
0.0
 40
0.2
 40
0.2
 40
0.2
 40
0.2
 40
0.4
 40
0.4
 40
0.4
 40
0.4
 40
0.6
 40
0.6
 40
0.6
 40
0.6
 40
1.0
 40
1.0
 40
1.0
 40
1.0
 10
56.9875
 20
17.3912
 30
0.0
 10
56.9875
 20
17.3912
 30
0.0
 10
56.9763
 20
17.3444
 30
0.0
 10
56.9763
 20
17.3444
 30
0.0
 10
56.9763
 20
17.3444
 30
0.0
 10
56.9763
 20
17.3444
 30
0.0
 10
56.9451
 20
17.3076
 30
0.0
 10
56.9451
 20
17.3076
 30
0.0
 10
56.9451
 20
17.3076
 30
0.0
 10
56.9451
 20
17.3076
 30
0.0
 10
56.9117
 20
17.2895
 30
0.0
 10
56.9117
 20
17.2895
 30
0.0
 10
56.9117
 20
17.2895
 30
0.0
 10
56.9117
 20
17.2895
 30
0.0
 10
56.8742
 20
17.2838
 30
0.0
 10
56.8742
 20
17.2838
 30
0.0
  0
SPLINE
  5
6B
330
1F
100
AcDbEntity
  8
Plan 1
370
     9
100
AcDbSpline
210
0.0
220
0.0
230
1.0
 70
     8
 71
     3
 72
    20
 73
    16
 74
     0
 42
0.0000000001
 43
0.0000000001
 12
1.0
 22
0.0
 32
0.0
 13
1.0
 23
0.0
 33
0.0
 40
0.0
 40
0.0
 40
0.0
 40
0.0
 40
0.2
 40
0.2
 40
0.2
 40
0.2
 40
0.4
 40
0.4
 40
0.4
 40
0.4
 40
0.6
 40
0.6
 40
0.6
 40
0.6
 40
1.0
 40
1.0
 40
1.0
 40
1.0
 10
56.8941
 20
17.5192
 30
0.0
 10
56.8941
 20
17.5192
 30
0.0
 10
56.9378
 20
17.4843
 30
0.0
 10
56.9378
 20
17.4843
 30
0.0
 10
56.9378
 20
17.4843
 30
0.0
 10
56.9378
 20
17.4843
 30
0.0
 10
56.9627
 20
17.458
 30
0.0
 10
56.9627
 20
17.458
 30
0.0
 10
56.9627
 20
17.458
 30
0.0
 10
56.9627
 20
17.458
 30
0.0
 10
56.9806
 20
17.4266
 30
0.0
 10
56.9806
 20
17.4266
 30
0.0
 10
56.9806
 20
17.4266
 30
0.0
 10
56.9806
 20
17.4266
 30
0.0
 10
56.9875
 20
17.3912
 30
0.0
 10
56.9875
 20
17.3912
 30
0.0
  0
SPLINE
  5
6C
330
1F
100
AcDbEntity
  8
Plan 1
370
     9
100
AcDbSpline
210
0.0
220
0.0
230
1.0
 70
     8
 71
     3
 72
    12
 73
     8
 74
     0
 42
0.0000000001
 43
0.0000000001
 12
1.0
 22
0.0
 32
0.0
 13
1.0
 23
0.0
 33
0.0
 40
0.0
 40
0.0
 40
0.0
 40
0.0
 40
0.3333333333333333
 40
0.3333333333333333
 40
0.3333333333333333
 40
0.3333333333333333
 40
1.0
 40
1.0
 40
1.0
 40
1.0
 10
56.8407
 20
17.5588
 30
0.0
 10
56.8407
 20
17.5588
 30
0.0
 10
56.8703
 20
17.5362
 30
0.0
 10
56.8703
 20
17.5362
 30
0.0
 10
56.8703
 20
17.5362
 30
0.0
 10
56.8703
 20
17.5362
 30
0.0
 10
56.8941
 20
17.5192
 30
0.0
 10
56.8941
 20
17.5192
 30
0.0
  0
SPLINE
  5
6D
330
1F
100
AcDbEntity
  8
Plan 1
370
     9
100
AcDbSpline
210
0.0
220
0.0
230
1.0
 70
     8
 71
     3
 72
    20
 73
    16
 74
     0
 42
0.0000000001
 43
0.0000000001
 12
1.0
 22
0.0
 32
0.0
 13
1.0
 23
0.0
 33
0.0
 40
0.0
 40
0.0
 40
0.0
 40
0.0
 40
0.2
 40
0.2
 40
0.2
 40
0.2
 40
0.4
 40
0.4
 40
0.4
 40
0.4
 40
0.6
 40
0.6
 40
0.6
 40
0.6
 40
1.0
 40
1.0
 40
1.0
 40
1.0
 10
56.8727
 20
17.6603
 30
0.0
 10
56.8727
 20
17.6603
 30
0.0
 10
56.8491
 20
17.6565
 30
0.0
 10
56.8491
 20
17.6565
 30
0.0
 10
56.8491
 20
17.6565
 30
0.0
 10
56.8491
 20
17.6565
 30
0.0
 10
56.8289
 20
17.6439
 30
0.0
 10
56.8289
 20
17.6439
 30
0.0
 10
56.8289
 20
17.6439
 30
0.0
 10
56.8289
 20
17.6439
 30
0.0
 10
56.8181
 20
17.6285
 30
0.0
 10
56.8181
 20
17.6285
 30
0.0
 10
56.8181
 20
17.6285
 30
0.0
 10
56.8181
 20
17.6285
 30
0.0
 10
56.8146
 20
17.61
 30
0.0
 10
56.8146
 20
17.61
 30
0.0
  0
SPLINE
  5
6E
330
1F
100
AcDbEntity
  8
Plan 1
370
     9
100
AcDbSpline
210
0.0
220
0.0
230
1.0
 70
     8
 71
     3
 72
    20
 73
    16
 74
     0
 42
0.0000000001
 43
0.0000000001
 12
1.0
 22
0.0
 32
0.0
 13
1.0
 23
0.0
 33
0.0
 40
0.0
 40
0.0
 40
0.0
 40
0.0
 40
0.2
 40
0.2
 40
0.2
 40
0.2
 40
0.4
 40
0.4
 40
0.4
 40
0.4
 40
0.6
 40
0.6
 40
0.6
 40
0.6
 40
1.0
 40
1.0
 40
1.0
 40
1.0
 10
56.9503
 20
17.6094
 30
0.0
 10
56.9503
 20
17.6094
 30
0.0
 10
56.9289
 20
17.6343
 30
0.0
 10
56.9289
 20
17.6343
 30
0.0
 10
56.9289
 20
17.6343
 30
0.0
 10
56.9289
 20
17.6343
 30
0.0
 10
56.9129
 20
17.6482
 30
0.0
 10
56.9129
 20
17.6482
 30
0.0
 10
56.9129
 20
17.6482
 30
0.0
 10
56.9129
 20
17.6482
 30
0.0
 10
56.8937
 20
17.6573
 30
0.0
 10
56.8937
 20
17.6573
 30
0.0
 10
56.8937
 20
17.6573
 30
0.0
 10
56.8937
 20
17.6573
 30
0.0
 10
56.8727
 20
17.6603
 30
0.0
 10
56.8727
 20
17.6603
 30
0.0
  0
SPLINE
  5
6F
330
1F
100
AcDbEntity
  8
Plan 1
370
     9
100
AcDbSpline
210
0.0
220
0.0
230
1.0
 70
    24
 71
     3
 72
     8
 73
     4
 74
     0
 42
0.0000000001
 43
0.0000000001
 12
1.0
 22
0.0
 32
0.0
 13
1.0
 23
0.0
 33
0.0
 40
0.0
 40
0.0
 40
0.0
 40
0.0
 40
1.0
 40
1.0
 40
1.0
 40
1.0
 10
56.9825
 20
17.6338
 30
0.0
 10
56.9825
 20
17.6338
 30
0.0
 10
56.9503
 20
17.6094
 30
0.0
 10
56.9503
 20
17.6094
 30
0.0
  0
SPLINE
  5
70
330
1F
100
AcDbEntity
  8
Plan 1
370
     9
100
AcDbSpline
210
0.0
220
0.0
230
1.0
 70
     8
 71
     3
 72
    20
 73
    16
 74
     0
 42
0.0000000001
 43
0.0000000001
 12
1.0
 22
0.0
 32
0.0
 13
1.0
 23
0.0
 33
0.0
 40
0.0
 40
0.0
 40
0.0
 40
0.0
 40
0.2
 40
0.2
 40
0.2
 40
0.2
 40
0.4
 40
0.4
 40
0.4
 40
0.4
 40
0.6
 40
0.6
 40
0.6
 40
0.6
 40
1.0
 40
1.0
 40
1.0
 40
1.0
 10
56.8767
 20
17.701
 30
0.0
 10
56.8767
 20
17.701
 30
0.0
 10
56.9199
 20
17.6918
 30
0.0
 10
56.9199
 20
17.6918
 30
0.0
 10
56.9199
 20
17.6918
 30
0.0
 10
56.9199
 20
17.6918
 30
0.0
 10
56.9442
 20
17.6766
 30
0.0
 10
56.9442
 20
17.6766
 30
0.0
 10
56.9442
 20
17.6766
 30
0.0
 10
56.9442
 20
17.6766
 30
0.0
 10
56.9646
 20
17.6564
 30
0.0
 10
56.9646
 20
17.6564
 30
0.0
 10
56.9646
 20
17.6564
 30
0.0
 10
56.9646
 20
17.6564
 30
0.0
 10
56.9825
 20
17.6338
 30
0.0
 10
56.9825
 20
17.6338
 30
0.0
  0
SPLINE
  5
71
330
1F
100
AcDbEntity
  8
Plan 1
370
     9
100
AcDbSpline
210
0.0
220
0.0
230
1.0
 70
     8
 71
     3
 72
    20
 73
    16
 74
     0
 42
0.0000000001
 43
0.0000000001
 12
1.0
 22
0.0
 32
0.0
 13
1.0
 23
0.0
 33
0.0
 40
0.0
 40
0.0
 40
0.0
 40
0.0
 40
0.2
 40
0.2
 40
0.2
 40
0.2
 40
0.4
 40
0.4
 40
0.4
 40
0.4
 40
0.6
 40
0.6
 40
0.6
 40
0.6
 40
1.0
 40
1.0
 40
1.0
 40
1.0
 10
56.7789
 20
17.6084
 30
0.0
 10
56.7789
 20
17.6084
 30
0.0
 10
56.7881
 20
17.6491
 30
0.0
 10
56.7881
 20
17.6491
 30
0.0
 10
56.7881
 20
17.6491
 30
0.0
 10
56.7881
 20
17.6491
 30
0.0
 10
56.8148
 20
17.6811
 30
0.0
 10
56.8148
 20
17.6811
 30
0.0
 10
56.8148
 20
17.6811
 30
0.0
 10
56.8148
 20
17.6811
 30
0.0
 10
56.8442
 20
17.696
 30
0.0
 10
56.8442
 20
17.696
 30
0.0
 10
56.8442
 20
17.696
 30
0.0
 10
56.8442
 20
17.696
 30
0.0
 10
56.8767
 20
17.701
 30
0.0
 10
56.8767
 20
17.701
 30
0.0
  0
SPLINE
  5
72
330
1F
100
AcDbEntity
  8
Plan 1
370
     9
100
AcDbSpline
210
0.0
220
0.0
230
1.0
 70
     8
 71
     3
 72
    12
 73
     8
 74
     0
 42
0.0000000001
 43
0.0000000001
 12
1.0
 22
0.0
 32
0.0
 13
1.0
 23
0.0
 33
0.0
 40
0.0
 40
0.0
 40
0.0
 40
0.0
 40
0.3333333333333333
 40
0.3333333333333333
 40
0.3333333333333333
 40
0.3333333333333333
 40
1.0
 40
1.0
 40
1.0
 40
1.0
 10
56.8011
 20
17.5479
 30
0.0
 10
56.8011
 20
17.5479
 30
0.0
 10
56.7835
 20
17.58
 30
0.0
 10
56.7835
 20
17.58
 30
0.0
 10
56.7835
 20
17.58
 30
0.0
 10
56.7835
 20
17.58
 30
0.0
 10
56.7789
 20
17.6084
 30
0.0
 10
56.7789
 20
17.6084
 30
0.0
  0
SPLINE
  5
73
330
1F
100
AcDbEntity
  8
Plan 1
370
     9
100
AcDbSpline
210
0.0
220
0.0
230
1.0
 70
     8
 71
     3
 72
    12
 73
     8
 74
     0
 42
0.0000000001
 43
0.0000000001
 12
1.0
 22
0.0
 32
0.0
 13
1.0
 23
0.0
 33
0.0
 40
0.0
 40
0.0
 40
0.0
 40
0.0
 40
0.3333333333333333
 40
0.3333333333333333
 40
0.3333333333333333
 40
0.3333333333333333
 40
1.0
 40
1.0
 40
1.0
 40
1.0
 10
56.8661
 20
17.494
 30
0.0
 10
56.8661
 20
17.494
 30
0.0
 10
56.8283
 20
17.5225
 30
0.0
 10
56.8283
 20
17.5225
 30
0.0
 10
56.8283
 20
17.5225
 30
0.0
 10
56.8283
 20
17.5225
 30
0.0
 10
56.8011
 20
17.5479
 30
0.0
 10
56.8011
 20
17.5479
 30
0.0
  0
SPLINE
  5
74
330
1F
100
AcDbEntity
  8
Plan 1
370
     9
100
AcDbSpline
210
0.0
220
0.0
230
1.0
 70
     8
 71
     3
 72
    12
 73
     8
 74
     0
 42
0.0000000001
 43
0.0000000001
 12
1.0
 22
0.0
 32
0.0
 13
1.0
 23
0.0
 33
0.0
 40
0.0
 40
0.0
 40
0.0
 40
0.0
 40
0.3333333333333333
 40
0.3333333333333333
 40
0.3333333333333333
 40
0.3333333333333333
 40
1.0
 40
1.0
 40
1.0
 40
1.0
 10
56.9377
 20
17.4307
 30
0.0
 10
56.9377
 20
17.4307
 30
0.0
 10
56.8997
 20
17.4684
 30
0.0
 10
56.8997
 20
17.4684
 30
0.0
 10
56.8997
 20
17.4684
 30
0.0
 10
56.8997
 20
17.4684
 30
0.0
 10
56.8661
 20
17.494
 30
0.0
 10
56.8661
 20
17.494
 30
0.0
  0
SPLINE
  5
75
330
1F
100
AcDbEntity
  8
Plan 1
370
     9
100
AcDbSpline
210
0.0
220
0.0
230
1.0
 70
     8
 71
     3
 72
    12
 73
     8
 74
     0
 42
0.0000000001
 43
0.0000000001
 12
1.0
 22
0.0
 32
0.0
 13
1.0
 23
0.0
 33
0.0
 40
0.0
 40
0.0
 40
0.0
 40
0.0
 40
0.3333333333333333
 40
0.3333333333333333
 40
0.3333333333333333
 40
0.3333333333333333
 40
1.0
 40
1.0
 40
1.0
 40
1.0
 10
56.9519
 20
17.3917
 30
0.0
 10
56.9519
 20
17.3917
 30
0.0
 10
56.9471
 20
17.4147
 30
0.0
 10
56.9471
 20
17.4147
 30
0.0
 10
56.9471
 20
17.4147
 30
0.0
 10
56.9471
 20
17.4147
 30
0.0
 10
56.9377
 20
17.4307
 30
0.0
 10
56.9377
 20
17.4307
 30
0.0
  0
SPLINE
  5
76
330
1F
100
AcDbEntity
  8
Plan 1
370
     9
100
AcDbSpline
210
0.0
220
0.0
230
1.0
 70
     8
 71
     3
 72
    20
 73
    16
 74
     0
 42
0.0000000001
 43
0.0000000001
 12
1.0
 22
0.0
 32
0.0
 13
1.0
 23
0.0
 33
0.0
 40
0.0
 40
0.0
 40
0.0
 40
0.0
 40
0.2
 40
0.2
 40
0.2
 40
0.2
 40
0.4
 40
0.4
 40
0.4
 40
0.4
 40
0.6
 40
0.6
 40
0.6
 40
0.6
 40
1.0
 40
1.0
 40
1.0
 40
1.0
 10
56.8742
 20
17.3245
 30
0.0
 10
56.8742
 20
17.3245
 30
0.0
 10
56.9055
 20
17.33
 30
0.0
 10
56.9055
 20
17.33
 30
0.0
 10
56.9055
 20
17.33
 30
0.0
 10
56.9055
 20
17.33
 30
0.0
 10
56.9326
 20
17.3467
 30
0.0
 10
56.9326
 20
17.3467
 30
0.0
 10
56.9326
 20
17.3467
 30
0.0
 10
56.9326
 20
17.3467
 30
0.0
 10
56.9468
 20
17.3673
 30
0.0
 10
56.9468
 20
17.3673
 30
0.0
 10
56.9468
 20
17.3673
 30
0.0
 10
56.9468
 20
17.3673
 30
0.0
 10
56.9519
 20
17.3917
 30
0.0
 10
56.9519
 20
17.3917
 30
0.0
  0
SPLINE
  5
77
330
1F
100
AcDbEntity
  8
Plan 1
370
     9
100
AcDbSpline
210
0.0
220
0.0
230
1.0
 70
     8
 71
     3
 72
    16
 73
    12
 74
     0
 42
0.0000000001
 43
0.0000000001
 12
1.0
 22
0.0
 32
0.0
 13
1.0
 23
0.0
 33
0.0
 40
0.0
 40
0.0
 40
0.0
 40
0.0
 40
0.25
 40
0.25
 40
0.25
 40
0.25
 40
0.5
 40
0.5
 40
0.5
 40
0.5
 40
1.0
 40
1.0
 40
1.0
 40
1.0
 10
56.787
 20
17.3906
 30
0.0
 10
56.787
 20
17.3906
 30
0.0
 10
56.8275
 20
17.3412
 30
0.0
 10
56.8275
 20
17.3412
 30
0.0
 10
56.8275
 20
17.3412
 30
0.0
 10
56.8275
 20
17.3412
 30
0.0
 10
56.8494
 20
17.3289
 30
0.0
 10
56.8494
 20
17.3289
 30
0.0
 10
56.8494
 20
17.3289
 30
0.0
 10
56.8494
 20
17.3289
 30
0.0
 10
56.8742
 20
17.3245
 30
0.0
 10
56.8742
 20
17.3245
 30
0.0
  0
SPLINE
  5
78
330
1F
100
AcDbEntity
  8
Plan 1
370
     9
100
AcDbSpline
210
0.0
220
0.0
230
1.0
 70
    24
 71
     3
 72
     8
 73
     4
 74
     0
 42
0.0000000001
 43
0.0000000001
 12
1.0
 22
0.0
 32
0.0
 13
1.0
 23
0.0
 33
0.0
 40
0.0
 40
0.0
 40
0.0
 40
0.0
 40
1.0
 40
1.0
 40
1.0
 40
1.0
 10
56.7535
 20
17.3705
 30
0.0
 10
56.7535
 20
17.3705
 30
0.0
 10
56.787
 20
17.3906
 30
0.0
 10
56.787
 20
17.3906
 30
0.0
  0
SPLINE
  5
79
330
1F
100
AcDbEntity
  8
Plan 1
370
     9
100
AcDbSpline
210
0.0
220
0.0
230
1.0
 70
     8
 71
     3
 72
    16
 73
    12
 74
     0
 42
0.0000000001
 43
0.0000000001
 12
1.0
 22
0.0
 32
0.0
 13
1.0
 23
0.0
 33
0.0
 40
0.0
 40
0.0
 40
0.0
 40
0.0
 40
0.25
 40
0.25
 40
0.25
 40
0.25
 40
0.5
 40
0.5
 40
0.5
 40
0.5
 40
1.0
 40
1.0
 40
1.0
 40
1.0
 10
56.8742
 20
17.2838
 30
0.0
 10
56.8742
 20
17.2838
 30
0.0
 10
56.8311
 20
17.2916
 30
0.0
 10
56.8311
 20
17.2916
 30
0.0
 10
56.8311
 20
17.2916
 30
0.0
 10
56.8311
 20
17.2916
 30
0.0
 10
56.7941
 20
17.3149
 30
0.0
 10
56.7941
 20
17.3149
 30
0.0
 10
56.7941
 20
17.3149
 30
0.0
 10
56.7941
 20
17.3149
 30
0.0
 10
56.7535
 20
17.3705
 30
0.0
 10
56.7535
 20
17.3705
 30
0.0
  0
SPLINE
  5
7A
330
1F
100
AcDbEntity
  8
Plan 1
370
     9
100
AcDbSpline
210
0.0
220
0.0
230
1.0
 70
     8
 71
     3
 72
    20
 73
    16
 74
     0
 42
0.0000000001
 43
0.0000000001
 12
1.0
 22
0.0
 32
0.0
 13
1.0
 23
0.0
 33
0.0
 40
0.0
 40
0.0
 40
0.0
 40
0.0
 40
0.2
 40
0.2
 40
0.2
 40
0.2
 40
0.4
 40
0.4
 40
0.4
 40
0.4
 40
0.6
 40
0.6
 40
0.6
 40
0.6
 40
1.0
 40
1.0
 40
1.0
 40
1.0
 10
57.0486
 20
17.4947
 30
0.0
 10
57.0486
 20
17.4947
 30
0.0
 10
57.0682
 20
17.5847
 30
0.0
 10
57.0682
 20
17.5847
 30
0.0
 10
57.0682
 20
17.5847
 30
0.0
 10
57.0682
 20
17.5847
 30
0.0
 10
57.1262
 20
17.6562
 30
0.0
 10
57.1262
 20
17.6562
 30
0.0
 10
57.1262
 20
17.6562
 30
0.0
 10
57.1262
 20
17.6562
 30
0.0
 10
57.1902
 20
17.6904
 30
0.0
 10
57.1902
 20
17.6904
 30
0.0
 10
57.1902
 20
17.6904
 30
0.0
 10
57.1902
 20
17.6904
 30
0.0
 10
57.2621
 20
17.701
 30
0.0
 10
57.2621
 20
17.701
 30
0.0
  0
SPLINE
  5
7B
330
1F
100
AcDbEntity
  8
Plan 1
370
     9
100
AcDbSpline
210
0.0
220
0.0
230
1.0
 70
     8
 71
     3
 72
    12
 73
     8
 74
     0
 42
0.0000000001
 43
0.0000000001
 12
1.0
 22
0.0
 32
0.0
 13
1.0
 23
0.0
 33
0.0
 40
0.0
 40
0.0
 40
0.0
 40
0.0
 40
0.3333333333333333
 40
0.3333333333333333
 40
0.3333333333333333
 40
0.3333333333333333
 40
1.0
 40
1.0
 40
1.0
 40
1.0
 10
57.0989
 20
17.3532
 30
0.0
 10
57.0989
 20
17.3532
 30
0.0
 10
57.0579
 20
17.428
 30
0.0
 10
57.0579
 20
17.428
 30
0.0
 10
57.0579
 20
17.428
 30
0.0
 10
57.0579
 20
17.428
 30
0.0
 10
57.0486
 20
17.4947
 30
0.0
 10
57.0486
 20
17.4947
 30
0.0
  0
SPLINE
  5
7C
330
1F
100
AcDbEntity
  8
Plan 1
370
     9
100
AcDbSpline
210
0.0
220
0.0
230
1.0
 70
     8
 71
     3
 72
    20
 73
    16
 74
     0
 42
0.0000000001
 43
0.0000000001
 12
1.0
 22
0.0
 32
0.0
 13
1.0
 23
0.0
 33
0.0
 40
0.0
 40
0.0
 40
0.0
 40
0.0
 40
0.2
 40
0.2
 40
0.2
 40
0.2
 40
0.4
 40
0.4
 40
0.4
 40
0.4
 40
0.6
 40
0.6
 40
0.6
 40
0.6
 40
1.0
 40
1.0
 40
1.0
 40
1.0
 10
57.2626
 20
17.2838
 30
0.0
 10
57.2626
 20
17.2838
 30
0.0
 10
57.2007
 20
17.2908
 30
0.0
 10
57.2007
 20
17.2908
 30
0.0
 10
57.2007
 20
17.2908
 30
0.0
 10
57.2007
 20
17.2908
 30
0.0
 10
57.1626
 20
17.3043
 30
0.0
 10
57.1626
 20
17.3043
 30
0.0
 10
57.1626
 20
17.3043
 30
0.0
 10
57.1626
 20
17.3043
 30
0.0
 10
57.1282
 20
17.3254
 30
0.0
 10
57.1282
 20
17.3254
 30
0.0
 10
57.1282
 20
17.3254
 30
0.0
 10
57.1282
 20
17.3254
 30
0.0
 10
57.0989
 20
17.3532
 30
0.0
 10
57.0989
 20
17.3532
 30
0.0
  0
SPLINE
  5
7D
330
1F
100
AcDbEntity
  8
Plan 1
370
     9
100
AcDbSpline
210
0.0
220
0.0
230
1.0
 70
     8
 71
     3
 72
    20
 73
    16
 74
     0
 42
0.0000000001
 43
0.0000000001
 12
1.0
 22
0.0
 32
0.0
 13
1.0
 23
0.0
 33
0.0
 40
0.0
 40
0.0
 40
0.0
 40
0.0
 40
0.2
 40
0.2
 40
0.2
 40
0.2
 40
0.4
 40
0.4
 40
0.4
 40
0.4
 40
0.6
 40
0.6
 40
0.6
 40
0.6
 40
1.0
 40
1.0
 40
1.0
 40
1.0
 10
57.4353
 20
17.367
 30
0.0
 10
57.4353
 20
17.367
 30
0.0
 10
57.3868
 20
17.3202
 30
0.0
 10
57.3868
 20
17.3202
 30
0.0
 10
57.3868
 20
17.3202
 30
0.0
 10
57.3868
 20
17.3202
 30
0.0
 10
57.3482
 20
17.2996
 30
0.0
 10
57.3482
 20
17.2996
 30
0.0
 10
57.3482
 20
17.2996
 30
0.0
 10
57.3482
 20
17.2996
 30
0.0
 10
57.3062
 20
17.2875
 30
0.0
 10
57.3062
 20
17.2875
 30
0.0
 10
57.3062
 20
17.2875
 30
0.0
 10
57.3062
 20
17.2875
 30
0.0
 10
57.2626
 20
17.2838
 30
0.0
 10
57.2626
 20
17.2838
 30
0.0
  0
SPLINE
  5
7E
330
1F
100
AcDbEntity
  8
Plan 1
370
     9
100
AcDbSpline
210
0.0
220
0.0
230
1.0
 70
    24
 71
     3
 72
     8
 73
     4
 74
     0
 42
0.0000000001
 43
0.0000000001
 12
1.0
 22
0.0
 32
0.0
 13
1.0
 23
0.0
 33
0.0
 40
0.0
 40
0.0
 40
0.0
 40
0.0
 40
1.0
 40
1.0
 40
1.0
 40
1.0
 10
57.4041
 20
17.3906
 30
0.0
 10
57.4041
 20
17.3906
 30
0.0
 10
57.4353
 20
17.367
 30
0.0
 10
57.4353
 20
17.367
 30
0.0
  0
SPLINE
  5
7F
330
1F
100
AcDbEntity
  8
Plan 1
370
     9
100
AcDbSpline
210
0.0
220
0.0
230
1.0
 70
     8
 71
     3
 72
    12
 73
     8
 74
     0
 42
0.0000000001
 43
0.0000000001
 12
1.0
 22
0.0
 32
0.0
 13
1.0
 23
0.0
 33
0.0
 40
0.0
 40
0.0
 40
0.0
 40
0.0
 40
0.3333333333333333
 40
0.3333333333333333
 40
0.3333333333333333
 40
0.3333333333333333
 40
1.0
 40
1.0
 40
1.0
 40
1.0
 10
57.2624
 20
17.3245
 30
0.0
 10
57.2624
 20
17.3245
 30
0.0
 10
57.3495
 20
17.3457
 30
0.0
 10
57.3495
 20
17.3457
 30
0.0
 10
57.3495
 20
17.3457
 30
0.0
 10
57.3495
 20
17.3457
 30
0.0
 10
57.4041
 20
17.3906
 30
0.0
 10
57.4041
 20
17.3906
 30
0.0
  0
SPLINE
  5
80
330
1F
100
AcDbEntity
  8
Plan 1
370
     9
100
AcDbSpline
210
0.0
220
0.0
230
1.0
 70
     8
 71
     3
 72
    20
 73
    16
 74
     0
 42
0.0000000001
 43
0.0000000001
 12
1.0
 22
0.0
 32
0.0
 13
1.0
 23
0.0
 33
0.0
 40
0.0
 40
0.0
 40
0.0
 40
0.0
 40
0.2
 40
0.2
 40
0.2
 40
0.2
 40
0.4
 40
0.4
 40
0.4
 40
0.4
 40
0.6
 40
0.6
 40
0.6
 40
0.6
 40
1.0
 40
1.0
 40
1.0
 40
1.0
 10
57.0842
 20
17.492
 30
0.0
 10
57.0842
 20
17.492
 30
0.0
 10
57.1007
 20
17.4179
 30
0.0
 10
57.1007
 20
17.4179
 30
0.0
 10
57.1007
 20
17.4179
 30
0.0
 10
57.1007
 20
17.4179
 30
0.0
 10
57.1496
 20
17.3598
 30
0.0
 10
57.1496
 20
17.3598
 30
0.0
 10
57.1496
 20
17.3598
 30
0.0
 10
57.1496
 20
17.3598
 30
0.0
 10
57.203
 20
17.3327
 30
0.0
 10
57.203
 20
17.3327
 30
0.0
 10
57.203
 20
17.3327
 30
0.0
 10
57.203
 20
17.3327
 30
0.0
 10
57.2624
 20
17.3245
 30
0.0
 10
57.2624
 20
17.3245
 30
0.0
  0
SPLINE
  5
81
330
1F
100
AcDbEntity
  8
Plan 1
370
     9
100
AcDbSpline
210
0.0
220
0.0
230
1.0
 70
     8
 71
     3
 72
    20
 73
    16
 74
     0
 42
0.0000000001
 43
0.0000000001
 12
1.0
 22
0.0
 32
0.0
 13
1.0
 23
0.0
 33
0.0
 40
0.0
 40
0.0
 40
0.0
 40
0.0
 40
0.2
 40
0.2
 40
0.2
 40
0.2
 40
0.4
 40
0.4
 40
0.4
 40
0.4
 40
0.6
 40
0.6
 40
0.6
 40
0.6
 40
1.0
 40
1.0
 40
1.0
 40
1.0
 10
57.2599
 20
17.6603
 30
0.0
 10
57.2599
 20
17.6603
 30
0.0
 10
57.186
 20
17.6453
 30
0.0
 10
57.186
 20
17.6453
 30
0.0
 10
57.186
 20
17.6453
 30
0.0
 10
57.186
 20
17.6453
 30
0.0
 10
57.1245
 20
17.6016
 30
0.0
 10
57.1245
 20
17.6016
 30
0.0
 10
57.1245
 20
17.6016
 30
0.0
 10
57.1245
 20
17.6016
 30
0.0
 10
57.0941
 20
17.5506
 30
0.0
 10
57.0941
 20
17.5506
 30
0.0
 10
57.0941
 20
17.5506
 30
0.0
 10
57.0941
 20
17.5506
 30
0.0
 10
57.0842
 20
17.492
 30
0.0
 10
57.0842
 20
17.492
 30
0.0
  0
SPLINE
  5
82
330
1F
100
AcDbEntity
  8
Plan 1
370
     9
100
AcDbSpline
210
0.0
220
0.0
230
1.0
 70
     8
 71
     3
 72
    20
 73
    16
 74
     0
 42
0.0000000001
 43
0.0000000001
 12
1.0
 22
0.0
 32
0.0
 13
1.0
 23
0.0
 33
0.0
 40
0.0
 40
0.0
 40
0.0
 40
0.0
 40
0.2
 40
0.2
 40
0.2
 40
0.2
 40
0.4
 40
0.4
 40
0.4
 40
0.4
 40
0.6
 40
0.6
 40
0.6
 40
0.6
 40
1.0
 40
1.0
 40
1.0
 40
1.0
 10
57.4041
 20
17.5941
 30
0.0
 10
57.4041
 20
17.5941
 30
0.0
 10
57.3629
 20
17.6314
 30
0.0
 10
57.3629
 20
17.6314
 30
0.0
 10
57.3629
 20
17.6314
 30
0.0
 10
57.3629
 20
17.6314
 30
0.0
 10
57.3307
 20
17.6477
 30
0.0
 10
57.3307
 20
17.6477
 30
0.0
 10
57.3307
 20
17.6477
 30
0.0
 10
57.3307
 20
17.6477
 30
0.0
 10
57.2959
 20
17.6573
 30
0.0
 10
57.2959
 20
17.6573
 30
0.0
 10
57.2959
 20
17.6573
 30
0.0
 10
57.2959
 20
17.6573
 30
0.0
 10
57.2599
 20
17.6603
 30
0.0
 10
57.2599
 20
17.6603
 30
0.0
  0
SPLINE
  5
83
330
1F
100
AcDbEntity
  8
Plan 1
370
     9
100
AcDbSpline
210
0.0
220
0.0
230
1.0
 70
    24
 71
     3
 72
     8
 73
     4
 74
     0
 42
0.0000000001
 43
0.0000000001
 12
1.0
 22
0.0
 32
0.0
 13
1.0
 23
0.0
 33
0.0
 40
0.0
 40
0.0
 40
0.0
 40
0.0
 40
1.0
 40
1.0
 40
1.0
 40
1.0
 10
57.4353
 20
17.618
 30
0.0
 10
57.4353
 20
17.618
 30
0.0
 10
57.4041
 20
17.5941
 30
0.0
 10
57.4041
 20
17.5941
 30
0.0
  0
SPLINE
  5
84
330
1F
100
AcDbEntity
  8
Plan 1
370
     9
100
AcDbSpline
210
0.0
220
0.0
230
1.0
 70
     8
 71
     3
 72
    20
 73
    16
 74
     0
 42
0.0000000001
 43
0.0000000001
 12
1.0
 22
0.0
 32
0.0
 13
1.0
 23
0.0
 33
0.0
 40
0.0
 40
0.0
 40
0.0
 40
0.0
 40
0.2
 40
0.2
 40
0.2
 40
0.2
 40
0.4
 40
0.4
 40
0.4
 40
0.4
 40
0.6
 40
0.6
 40
0.6
 40
0.6
 40
1.0
 40
1.0
 40
1.0
 40
1.0
 10
57.2621
 20
17.701
 30
0.0
 10
57.2621
 20
17.701
 30
0.0
 10
57.3292
 20
17.6919
 30
0.0
 10
57.3292
 20
17.6919
 30
0.0
 10
57.3292
 20
17.6919
 30
0.0
 10
57.3292
 20
17.6919
 30
0.0
 10
57.3697
 20
17.6752
 30
0.0
 10
57.3697
 20
17.6752
 30
0.0
 10
57.3697
 20
17.6752
 30
0.0
 10
57.3697
 20
17.6752
 30
0.0
 10
57.4058
 20
17.6503
 30
0.0
 10
57.4058
 20
17.6503
 30
0.0
 10
57.4058
 20
17.6503
 30
0.0
 10
57.4058
 20
17.6503
 30
0.0
 10
57.4353
 20
17.618
 30
0.0
 10
57.4353
 20
17.618
 30
0.0
  0
SPLINE
  5
85
330
1F
100
AcDbEntity
  8
Plan 1
370
     9
100
AcDbSpline
210
0.0
220
0.0
230
1.0
 70
    24
 71
     3
 72
     8
 73
     4
 74
     0
 42
0.0000000001
 43
0.0000000001
 12
1.0
 22
0.0
 32
0.0
 13
1.0
 23
0.0
 33
0.0
 40
0.0
 40
0.0
 40
0.0
 40
0.0
 40
1.0
 40
1.0
 40
1.0
 40
1.0
 10
57.6897
 20
17.6056
 30
0.0
 10
57.6897
 20
17.6056
 30
0.0
 10
57.6897
 20
17.2939
 30
0.0
 10
57.6897
 20
17.2939
 30
0.0
  0
SPLINE
  5
86
330
1F
100
AcDbEntity
  8
Plan 1
370
     9
100
AcDbSpline
210
0.0
220
0.0
230
1.0
 70
    24
 71
     3
 72
     8
 73
     4
 74
     0
 42
0.0000000001
 43
0.0000000001
 12
1.0
 22
0.0
 32
0.0
 13
1.0
 23
0.0
 33
0.0
 40
0.0
 40
0.0
 40
0.0
 40
0.0
 40
1.0
 40
1.0
 40
1.0
 40
1.0
 10
57.9513
 20
17.2939
 30
0.0
 10
57.9513
 20
17.2939
 30
0.0
 10
57.6897
 20
17.6056
 30
0.0
 10
57.6897
 20
17.6056
 30
0.0
  0
SPLINE
  5
87
330
1F
100
AcDbEntity
  8
Plan 1
370
     9
100
AcDbSpline
210
0.0
220
0.0
230
1.0
 70
    24
 71
     3
 72
     8
 73
     4
 74
     0
 42
0.0000000001
 43
0.0000000001
 12
1.0
 22
0.0
 32
0.0
 13
1.0
 23
0.0
 33
0.0
 40
0.0
 40
0.0
 40
0.0
 40
0.0
 40
1.0
 40
1.0
 40
1.0
 40
1.0
 10
57.9594
 20
17.2939
 30
0.0
 10
57.9594
 20
17.2939
 30
0.0
 10
57.9513
 20
17.2939
 30
0.0
 10
57.9513
 20
17.2939
 30
0.0
  0
SPLINE
  5
88
330
1F
100
AcDbEntity
  8
Plan 1
370
     9
100
AcDbSpline
210
0.0
220
0.0
230
1.0
 70
    24
 71
     3
 72
     8
 73
     4
 74
     0
 42
0.0000000001
 43
0.0000000001
 12
1.0
 22
0.0
 32
0.0
 13
1.0
 23
0.0
 33
0.0
 40
0.0
 40
0.0
 40
0.0
 40
0.0
 40
1.0
 40
1.0
 40
1.0
 40
1.0
 10
57.9594
 20
17.6908
 30
0.0
 10
57.9594
 20
17.6908
 30
0.0
 10
57.9594
 20
17.2939
 30
0.0
 10
57.9594
 20
17.2939
 30
0.0
  0
SPLINE
  5
89
330
1F
100
AcDbEntity
  8
Plan 1
370
     9
100
AcDbSpline
210
0.0
220
0.0
230
1.0
 70
    24
 71
     3
 72
     8
 73
     4
 74
     0
 42
0.0000000001
 43
0.0000000001
 12
1.0
 22
0.0
 32
0.0
 13
1.0
 23
0.0
 33
0.0
 40
0.0
 40
0.0
 40
0.0
 40
0.0
 40
1.0
 40
1.0
 40
1.0
 40
1.0
 10
57.9238
 20
17.6908
 30
0.0
 10
57.9238
 20
17.6908
 30
0.0
 10
57.9594
 20
17.6908
 30
0.0
 10
57.9594
 20
17.6908
 30
0.0
  0
SPLINE
  5
8A
330
1F
100
AcDbEntity
  8
Plan 1
370
     9
100
AcDbSpline
210
0.0
220
0.0
230
1.0
 70
    24
 71
     3
 72
     8
 73
     4
 74
     0
 42
0.0000000001
 43
0.0000000001
 12
1.0
 22
0.0
 32
0.0
 13
1.0
 23
0.0
 33
0.0
 40
0.0
 40
0.0
 40
0.0
 40
0.0
 40
1.0
 40
1.0
 40
1.0
 40
1.0
 10
57.9238
 20
17.3784
 30
0.0
 10
57.9238
 20
17.3784
 30
0.0
 10
57.9238
 20
17.6908
 30
0.0
 10
57.9238
 20
17.6908
 30
0.0
  0
SPLINE
  5
8B
330
1F
100
AcDbEntity
  8
Plan 1
370
     9
100
AcDbSpline
210
0.0
220
0.0
230
1.0
 70
    24
 71
     3
 72
     8
 73
     4
 74
     0
 42
0.0000000001
 43
0.0000000001
 12
1.0
 22
0.0
 32
0.0
 13
1.0
 23
0.0
 33
0.0
 40
0.0
 40
0.0
 40
0.0
 40
0.0
 40
1.0
 40
1.0
 40
1.0
 40
1.0
 10
57.6616
 20
17.6908
 30
0.0
 10
57.6616
 20
17.6908
 30
0.0
 10
57.9238
 20
17.3784
 30
0.0
 10
57.9238
 20
17.3784
 30
0.0
  0
SPLINE
  5
8C
330
1F
100
AcDbEntity
  8
Plan 1
370
     9
100
AcDbSpline
210
0.0
220
0.0
230
1.0
 70
    24
 71
     3
 72
     8
 73
     4
 74
     0
 42
0.0000000001
 43
0.0000000001
 12
1.0
 22
0.0
 32
0.0
 13
1.0
 23
0.0
 33
0.0
 40
0.0
 40
0.0
 40
0.0
 40
0.0
 40
1.0
 40
1.0
 40
1.0
 40
1.0
 10
57.6541
 20
17.6908
 30
0.0
 10
57.6541
 20
17.6908
 30
0.0
 10
57.6616
 20
17.6908
 30
0.0
 10
57.6616
 20
17.6908
 30
0.0
  0
SPLINE
  5
8D
330
1F
100
AcDbEntity
  8
Plan 1
370
     9
100
AcDbSpline
210
0.0
220
0.0
230
1.0
 70
    24
 71
     3
 72
     8
 73
     4
 74
     0
 42
0.0000000001
 43
0.0000000001
 12
1.0
 22
0.0
 32
0.0
 13
1.0
 23
0.0
 33
0.0
 40
0.0
 40
0.0
 40
0.0
 40
0.0
 40
1.0
 40
1.0
 40
1.0
 40
1.0
 10
57.6541
 20
17.2939
 30
0.0
 10
57.6541
 20
17.2939
 30
0.0
 10
57.6541
 20
17.6908
 30
0.0
 10
57.6541
 20
17.6908
 30
0.0
  0
SPLINE
  5
8E
330
1F
100
AcDbEntity
  8
Plan 1
370
     9
100
AcDbSpline
210
0.0
220
0.0
230
1.0
 70
    24
 71
     3
 72
     8
 73
     4
 74
     0
 42
0.0000000001
 43
0.0000000001
 12
1.0
 22
0.0
 32
0.0
 13
1.0
 23
0.0
 33
0.0
 40
0.0
 40
0.0
 40
0.0
 40
0.0
 40
1.0
 40
1.0
 40
1.0
 40
1.0
 10
57.6897
 20
17.2939
 30
0.0
 10
57.6897
 20
17.2939
 30
0.0
 10
57.6541
 20
17.2939
 30
0.0
 10
57.6541
 20
17.2939
 30
0.0
  0
SPLINE
  5
8F
330
1F
100
AcDbEntity
  8
Plan 1
370
     9
100
AcDbSpline
210
0.0
220
0.0
230
1.0
 70
    24
 71
     3
 72
     8
 73
     4
 74
     0
 42
0.0000000001
 43
0.0000000001
 12
1.0
 22
0.0
 32
0.0
 13
1.0
 23
0.0
 33
0.0
 40
0.0
 40
0.0
 40
0.0
 40
0.0
 40
1.0
 40
1.0
 40
1.0
 40
1.0
 10
58.3206
 20
17.2939
 30
0.0
 10
58.3206
 20
17.2939
 30
0.0
 10
58.285
 20
17.2939
 30
0.0
 10
58.285
 20
17.2939
 30
0.0
  0
SPLINE
  5
90
330
1F
100
AcDbEntity
  8
Plan 1
370
     9
100
AcDbSpline
210
0.0
220
0.0
230
1.0
 70
    24
 71
     3
 72
     8
 73
     4
 74
     0
 42
0.0000000001
 43
0.0000000001
 12
1.0
 22
0.0
 32
0.0
 13
1.0
 23
0.0
 33
0.0
 40
0.0
 40
0.0
 40
0.0
 40
0.0
 40
1.0
 40
1.0
 40
1.0
 40
1.0
 10
58.3206
 20
17.6908
 30
0.0
 10
58.3206
 20
17.6908
 30
0.0
 10
58.3206
 20
17.2939
 30
0.0
 10
58.3206
 20
17.2939
 30
0.0
  0
SPLINE
  5
91
330
1F
100
AcDbEntity
  8
Plan 1
370
     9
100
AcDbSpline
210
0.0
220
0.0
230
1.0
 70
    24
 71
     3
 72
     8
 73
     4
 74
     0
 42
0.0000000001
 43
0.0000000001
 12
1.0
 22
0.0
 32
0.0
 13
1.0
 23
0.0
 33
0.0
 40
0.0
 40
0.0
 40
0.0
 40
0.0
 40
1.0
 40
1.0
 40
1.0
 40
1.0
 10
58.285
 20
17.6908
 30
0.0
 10
58.285
 20
17.6908
 30
0.0
 10
58.3206
 20
17.6908
 30
0.0
 10
58.3206
 20
17.6908
 30
0.0
  0
SPLINE
  5
92
330
1F
100
AcDbEntity
  8
Plan 1
370
     9
100
AcDbSpline
210
0.0
220
0.0
230
1.0
 70
    24
 71
     3
 72
     8
 73
     4
 74
     0
 42
0.0000000001
 43
0.0000000001
 12
1.0
 22
0.0
 32
0.0
 13
1.0
 23
0.0
 33
0.0
 40
0.0
 40
0.0
 40
0.0
 40
0.0
 40
1.0
 40
1.0
 40
1.0
 40
1.0
 10
58.285
 20
17.2939
 30
0.0
 10
58.285
 20
17.2939
 30
0.0
 10
58.285
 20
17.6908
 30
0.0
 10
58.285
 20
17.6908
 30
0.0
  0
SPLINE
  5
93
330
1F
100
AcDbEntity
  8
Plan 1
370
     9
100
AcDbSpline
210
0.0
220
0.0
230
1.0
 70
    24
 71
     3
 72
     8
 73
     4
 74
     0
 42
0.0000000001
 43
0.0000000001
 12
1.0
 22
0.0
 32
0.0
 13
1.0
 23
0.0
 33
0.0
 40
0.0
 40
0.0
 40
0.0
 40
0.0
 40
1.0
 40
1.0
 40
1.0
 40
1.0
 10
58.8651
 20
17.2939
 30
0.0
 10
58.8651
 20
17.2939
 30
0.0
 10
58.6768
 20
17.2939
 30
0.0
 10
58.6768
 20
17.2939
 30
0.0
  0
SPLINE
  5
94
330
1F
100
AcDbEntity
  8
Plan 1
370
     9
100
AcDbSpline
210
0.0
220
0.0
230
1.0
 70
    24
 71
     3
 72
     8
 73
     4
 74
     0
 42
0.0000000001
 43
0.0000000001
 12
1.0
 22
0.0
 32
0.0
 13
1.0
 23
0.0
 33
0.0
 40
0.0
 40
0.0
 40
0.0
 40
0.0
 40
1.0
 40
1.0
 40
1.0
 40
1.0
 10
58.8651
 20
17.3346
 30
0.0
 10
58.8651
 20
17.3346
 30
0.0
 10
58.8651
 20
17.2939
 30
0.0
 10
58.8651
 20
17.2939
 30
0.0
  0
SPLINE
  5
95
330
1F
100
AcDbEntity
  8
Plan 1
370
     9
100
AcDbSpline
210
0.0
220
0.0
230
1.0
 70
    24
 71
     3
 72
     8
 73
     4
 74
     0
 42
0.0000000001
 43
0.0000000001
 12
1.0
 22
0.0
 32
0.0
 13
1.0
 23
0.0
 33
0.0
 40
0.0
 40
0.0
 40
0.0
 40
0.0
 40
1.0
 40
1.0
 40
1.0
 40
1.0
 10
58.7124
 20
17.3346
 30
0.0
 10
58.7124
 20
17.3346
 30
0.0
 10
58.8651
 20
17.3346
 30
0.0
 10
58.8651
 20
17.3346
 30
0.0
  0
SPLINE
  5
96
330
1F
100
AcDbEntity
  8
Plan 1
370
     9
100
AcDbSpline
210
0.0
220
0.0
230
1.0
 70
    24
 71
     3
 72
     8
 73
     4
 74
     0
 42
0.0000000001
 43
0.0000000001
 12
1.0
 22
0.0
 32
0.0
 13
1.0
 23
0.0
 33
0.0
 40
0.0
 40
0.0
 40
0.0
 40
0.0
 40
1.0
 40
1.0
 40
1.0
 40
1.0
 10
58.7124
 20
17.6908
 30
0.0
 10
58.7124
 20
17.6908
 30
0.0
 10
58.7124
 20
17.3346
 30
0.0
 10
58.7124
 20
17.3346
 30
0.0
  0
SPLINE
  5
97
330
1F
100
AcDbEntity
  8
Plan 1
370
     9
100
AcDbSpline
210
0.0
220
0.0
230
1.0
 70
    24
 71
     3
 72
     8
 73
     4
 74
     0
 42
0.0000000001
 43
0.0000000001
 12
1.0
 22
0.0
 32
0.0
 13
1.0
 23
0.0
 33
0.0
 40
0.0
 40
0.0
 40
0.0
 40
0.0
 40
1.0
 40
1.0
 40
1.0
 40
1.0
 10
58.6768
 20
17.6908
 30
0.0
 10
58.6768
 20
17.6908
 30
0.0
 10
58.7124
 20
17.6908
 30
0.0
 10
58.7124
 20
17.6908
 30
0.0
  0
SPLINE
  5
98
330
1F
100
AcDbEntity
  8
Plan 1
370
     9
100
AcDbSpline
210
0.0
220
0.0
230
1.0
 70
    24
 71
     3
 72
     8
 73
     4
 74
     0
 42
0.0000000001
 43
0.0000000001
 12
1.0
 22
0.0
 32
0.0
 13
1.0
 23
0.0
 33
0.0
 40
0.0
 40
0.0
 40
0.0
 40
0.0
 40
1.0
 40
1.0
 40
1.0
 40
1.0
 10
58.6768
 20
17.2939
 30
0.0
 10
58.6768
 20
17.2939
 30
0.0
 10
58.6768
 20
17.6908
 30
0.0
 10
58.6768
 20
17.6908
 30
0.0
  0
SPLINE
  5
99
330
1F
100
AcDbEntity
  8
Plan 1
370
     9
100
AcDbSpline
210
0.0
220
0.0
230
1.0
 70
     8
 71
     3
 72
    16
 73
    12
 74
     0
 42
0.0000000001
 43
0.0000000001
 12
1.0
 22
0.0
 32
0.0
 13
1.0
 23
0.0
 33
0.0
 40
0.0
 40
0.0
 40
0.0
 40
0.0
 40
0.25
 40
0.25
 40
0.25
 40
0.25
 40
0.5
 40
0.5
 40
0.5
 40
0.5
 40
1.0
 40
1.0
 40
1.0
 40
1.0
 10
56.8146
 20
17.61
 30
0.0
 10
56.8146
 20
17.61
 30
0.0
 10
56.8169
 20
17.5936
 30
0.0
 10
56.8169
 20
17.5936
 30
0.0
 10
56.8169
 20
17.5936
 30
0.0
 10
56.8169
 20
17.5936
 30
0.0
 10
56.8237
 20
17.5785
 30
0.0
 10
56.8237
 20
17.5785
 30
0.0
 10
56.8237
 20
17.5785
 30
0.0
 10
56.8237
 20
17.5785
 30
0.0
 10
56.8407
 20
17.5588
 30
0.0
 10
56.8407
 20
17.5588
 30
0.0
  0
SPLINE
  5
9A
330
1F
100
AcDbEntity
  8
Plan 1
370
     9
100
AcDbSpline
210
0.0
220
0.0
230
1.0
 70
    24
 71
     3
 72
     8
 73
     4
 74
     0
 42
0.0000000001
 43
0.0000000001
 12
1.0
 22
0.0
 32
0.0
 13
1.0
 23
0.0
 33
0.0
 40
0.0
 40
0.0
 40
0.0
 40
0.0
 40
1.0
 40
1.0
 40
1.0
 40
1.0
 10
59.0192
 20
17.4618
 30
0.0
 10
59.0192
 20
17.4618
 30
0.0
 10
59.1611
 20
17.4618
 30
0.0
 10
59.1611
 20
17.4618
 30
0.0
  0
SPLINE
  5
9B
330
1F
100
AcDbEntity
  8
Plan 1
370
     9
100
AcDbSpline
210
0.0
220
0.0
230
1.0
 70
    24
 71
     3
 72
     8
 73
     4
 74
     0
 42
0.0000000001
 43
0.0000000001
 12
1.0
 22
0.0
 32
0.0
 13
1.0
 23
0.0
 33
0.0
 40
0.0
 40
0.0
 40
0.0
 40
0.0
 40
1.0
 40
1.0
 40
1.0
 40
1.0
 10
59.1611
 20
17.4618
 30
0.0
 10
59.1611
 20
17.4618
 30
0.0
 10
59.0911
 20
17.6134
 30
0.0
 10
59.0911
 20
17.6134
 30
0.0
  0
SPLINE
  5
9C
330
1F
100
AcDbEntity
  8
Plan 1
370
     9
100
AcDbSpline
210
0.0
220
0.0
230
1.0
 70
    24
 71
     3
 72
     8
 73
     4
 74
     0
 42
0.0000000001
 43
0.0000000001
 12
1.0
 22
0.0
 32
0.0
 13
1.0
 23
0.0
 33
0.0
 40
0.0
 40
0.0
 40
0.0
 40
0.0
 40
1.0
 40
1.0
 40
1.0
 40
1.0
 10
59.0911
 20
17.6134
 30
0.0
 10
59.0911
 20
17.6134
 30
0.0
 10
59.0192
 20
17.4618
 30
0.0
 10
59.0192
 20
17.4618
 30
0.0
  0
SPLINE
  5
9D
330
1F
100
AcDbEntity
  8
Plan 1
370
     9
100
AcDbSpline
210
0.0
220
0.0
230
1.0
 70
     8
 71
     3
 72
     8
 73
     4
 74
     0
 42
0.0000000001
 43
0.0000000001
 12
1.0
 22
0.0
 32
0.0
 13
1.0
 23
0.0
 33
0.0
 40
0.0
 40
0.0
 40
0.0
 40
0.0
 40
1.0
 40
1.0
 40
1.0
 40
1.0
 10
63.9516
 20
17.594
 30
0.0
 10
64.4944
 20
17.3938
 30
0.0
 10
65.1039
 20
17.5237
 30
0.0
 10
65.518
 20
17.9277
 30
0.0
  0
SPLINE
  5
9E
330
1F
100
AcDbEntity
  8
Plan 1
370
     9
100
AcDbSpline
210
0.0
220
0.0
230
1.0
 70
     8
 71
     3
 72
     8
 73
     4
 74
     0
 42
0.0000000001
 43
0.0000000001
 12
1.0
 22
0.0
 32
0.0
 13
1.0
 23
0.0
 33
0.0
 40
0.0
 40
0.0
 40
0.0
 40
0.0
 40
1.0
 40
1.0
 40
1.0
 40
1.0
 10
31.5364
 20
18.2678
 30
0.0
 10
31.9171
 20
17.6846
 30
0.0
 10
32.6491
 20
17.44
 30
0.0
 10
33.3039
 20
17.6774
 30
0.0
  0
SPLINE
  5
9F
330
1F
100
AcDbEntity
  8
Plan 1
370
     9
100
AcDbSpline
210
0.0
220
0.0
230
1.0
 70
    24
 71
     3
 72
     8
 73
     4
 74
     0
 42
0.0000000001
 43
0.0000000001
 12
1.0
 22
0.0
 32
0.0
 13
1.0
 23
0.0
 33
0.0
 40
0.0
 40
0.0
 40
0.0
 40
0.0
 40
1.0
 40
1.0
 40
1.0
 40
1.0
 10
30.2822
 20
20.1897
 30
0.0
 10
30.2822
 20
20.1897
 30
0.0
 10
31.5364
 20
18.2678
 30
0.0
 10
31.5364
 20
18.2678
 30
0.0
  0
SPLINE
  5
A0
330
1F
100
AcDbEntity
  8
Plan 1
370
     9
100
AcDbSpline
210
0.0
220
0.0
230
1.0
 70
     8
 71
     3
 72
     8
 73
     4
 74
     0
 42
0.0000000001
 43
0.0000000001
 12
1.0
 22
0.0
 32
0.0
 13
1.0
 23
0.0
 33
0.0
 40
0.0
 40
0.0
 40
0.0
 40
0.0
 40
1.0
 40
1.0
 40
1.0
 40
1.0
 10
63.9516
 20
17.594
 30
0.0
 10
54.0659
 20
21.2389
 30
0.0
 10
43.2093
 20
21.2685
 30
0.0
 10
33.3039
 20
17.6774
 30
0.0
  0
SPLINE
  5
A1
330
1F
100
AcDbEntity
  8
Plan 1
370
     9
100
AcDbSpline
210
0.0
220
0.0
230
1.0
 70
    24
 71
     3
 72
     8
 73
     4
 74
     0
 42
0.0000000001
 43
0.0000000001
 12
1.0
 22
0.0
 32
0.0
 13
1.0
 23
0.0
 33
0.0
 40
0.0
 40
0.0
 40
0.0
 40
0.0
 40
1.0
 40
1.0
 40
1.0
 40
1.0
 10
65.518
 20
17.9277
 30
0.0
 10
65.518
 20
17.9277
 30
0.0
 10
67.8366
 20
20.1897
 30
0.0
 10
67.8366
 20
20.1897
 30
0.0
  0
SPLINE
  5
A2
330
1F
100
AcDbEntity
  8
Plan 1
370
     9
100
AcDbSpline
210
0.0
220
0.0
230
1.0
 70
     8
 71
     3
 72
     8
 73
     4
 74
     0
 42
0.0000000001
 43
0.0000000001
 12
1.0
 22
0.0
 32
0.0
 13
1.0
 23
0.0
 33
0.0
 40
0.0
 40
0.0
 40
0.0
 40
0.0
 40
1.0
 40
1.0
 40
1.0
 40
1.0
 10
67.8366
 20
20.1897
 30
0.0
 10
56.2018
 20
26.8401
 30
0.0
 10
41.9171
 20
26.8401
 30
0.0
 10
30.2822
 20
20.1897
 30
0.0
  0
ELLIPSE
  5
A3
330
1F
100
AcDbEntity
  8
Plan 1
 62
   250
370
    20
100
AcDbEllipse
 10
32.8065
 20
19.0835
 30
0.0
 11
0.0926
 21
0.0
 31
0.0
210
0.0
220
0.0
230
1.0
 40
0.9287257019438444
 41
0.0
 42
6.283185307179586
  0
ELLIPSE
  5
A4
330
1F
100
AcDbEntity
  8
Plan 1
 62
   250
370
    20
100
AcDbEllipse
 10
64.4773
 20
19.0041
 30
0.0
 11
0.0926
 21
0.0
 31
0.0
210
0.0
220
0.0
230
1.0
 40
0.9287257019438444
 41
0.0
 42
6.283185307179586
  0
SPLINE
  5
A5
330
1F
100
AcDbEntity
  8
Plan 1
370
     9
100
AcDbSpline
210
0.0
220
0.0
230
1.0
 70
    24
 71
     3
 72
     8
 73
     4
 74
     0
 42
0.0000000001
 43
0.0000000001
 12
1.0
 22
0.0
 32
0.0
 13
1.0
 23
0.0
 33
0.0
 40
0.0
 40
0.0
 40
0.0
 40
0.0
 40
1.0
 40
1.0
 40
1.0
 40
1.0
 10
41.4714
 20
11.5564
 30
0.0
 10
41.4714
 20
11.5564
 30
0.0
 10
41.4736
 20
11.5547
 30
0.0
 10
41.4736
 20
11.5547
 30
0.0
  0
SPLINE
  5
A6
330
1F
100
AcDbEntity
  8
Plan 1
370
     9
100
AcDbSpline
210
0.0
220
0.0
230
1.0
 70
    24
 71
     3
 72
     8
 73
     4
 74
     0
 42
0.0000000001
 43
0.0000000001
 12
1.0
 22
0.0
 32
0.0
 13
1.0
 23
0.0
 33
0.0
 40
0.0
 40
0.0
 40
0.0
 40
0.0
 40
1.0
 40
1.0
 40
1.0
 40
1.0
 10
42.7
 20
12.3997
 30
0.0
 10
42.7
 20
12.3997
 30
0.0
 10
42.7597
 20
12.3859
 30
0.0
 10
42.7597
 20
12.3859
 30
0.0
  0
SPLINE
  5
A7
330
1F
100
AcDbEntity
  8
Plan 1
370
     9
100
AcDbSpline
210
0.0
220
0.0
230
1.0
 70
    24
 71
     3
 72
     8
 73
     4
 74
     0
 42
0.0000000001
 43
0.0000000001
 12
1.0
 22
0.0
 32
0.0
 13
1.0
 23
0.0
 33
0.0
 40
0.0
 40
0.0
 40
0.0
 40
0.0
 40
1.0
 40
1.0
 40
1.0
 40
1.0
 10
41.4871
 20
13.506
 30
0.0
 10
41.4871
 20
13.506
 30
0.0
 10
41.4871
 20
13.5645
 30
0.0
 10
41.4871
 20
13.5645
 30
0.0
  0
SPLINE
  5
A8
330
1F
100
AcDbEntity
  8
Plan 1
370
     9
100
AcDbSpline
210
0.0
220
0.0
230
1.0
 70
     8
 71
     3
 72
     8
 73
     4
 74
     0
 42
0.0000000001
 43
0.0000000001
 12
1.0
 22
0.0
 32
0.0
 13
1.0
 23
0.0
 33
0.0
 40
0.0
 40
0.0
 40
0.0
 40
0.0
 40
1.0
 40
1.0
 40
1.0
 40
1.0
 10
59.5544
 20
9.7512
 30
0.0
 10
59.9603
 20
9.7512
 30
0.0
 10
60.3259
 20
9.9966
 30
0.0
 10
60.4797
 20
10.3721
 30
0.0
  0
SPLINE
  5
A9
330
1F
100
AcDbEntity
  8
Plan 1
370
     9
100
AcDbSpline
210
0.0
220
0.0
230
1.0
 70
    24
 71
     3
 72
     8
 73
     4
 74
     0
 42
0.0000000001
 43
0.0000000001
 12
1.0
 22
0.0
 32
0.0
 13
1.0
 23
0.0
 33
0.0
 40
0.0
 40
0.0
 40
0.0
 40
0.0
 40
1.0
 40
1.0
 40
1.0
 40
1.0
 10
59.5544
 20
9.7512
 30
0.0
 10
59.5544
 20
9.7512
 30
0.0
 10
39.4981
 20
9.7512
 30
0.0
 10
39.4981
 20
9.7512
 30
0.0
  0
SPLINE
  5
AA
330
1F
100
AcDbEntity
  8
Plan 1
370
     9
100
AcDbSpline
210
0.0
220
0.0
230
1.0
 70
    24
 71
     3
 72
     8
 73
     4
 74
     0
 42
0.0000000001
 43
0.0000000001
 12
1.0
 22
0.0
 32
0.0
 13
1.0
 23
0.0
 33
0.0
 40
0.0
 40
0.0
 40
0.0
 40
0.0
 40
1.0
 40
1.0
 40
1.0
 40
1.0
 10
60.5561
 20
41.812
 30
0.0
 10
60.5561
 20
41.812
 30
0.0
 10
64.8321
 20
41.812
 30
0.0
 10
64.8321
 20
41.812
 30
0.0
  0
SPLINE
  5
AB
330
1F
100
AcDbEntity
  8
Plan 1
370
     9
100
AcDbSpline
210
0.0
220
0.0
230
1.0
 70
    24
 71
     3
 72
     8
 73
     4
 74
     0
 42
0.0000000001
 43
0.0000000001
 12
1.0
 22
0.0
 32
0.0
 13
1.0
 23
0.0
 33
0.0
 40
0.0
 40
0.0
 40
0.0
 40
0.0
 40
1.0
 40
1.0
 40
1.0
 40
1.0
 10
64.8321
 20
41.812
 30
0.0
 10
64.8321
 20
41.812
 30
0.0
 10
66.5309
 20
41.812
 30
0.0
 10
66.5309
 20
41.812
 30
0.0
  0
SPLINE
  5
AC
330
1F
100
AcDbEntity
  8
Plan 1
370
     9
100
AcDbSpline
210
0.0
220
0.0
230
1.0
 70
    24
 71
     3
 72
     8
 73
     4
 74
     0
 42
0.0000000001
 43
0.0000000001
 12
1.0
 22
0.0
 32
0.0
 13
1.0
 23
0.0
 33
0.0
 40
0.0
 40
0.0
 40
0.0
 40
0.0
 40
1.0
 40
1.0
 40
1.0
 40
1.0
 10
66.5309
 20
41.812
 30
0.0
 10
66.5309
 20
41.812
 30
0.0
 10
68.7281
 20
41.812
 30
0.0
 10
68.7281
 20
41.812
 30
0.0
  0
SPLINE
  5
AD
330
1F
100
AcDbEntity
  8
Plan 1
370
     9
100
AcDbSpline
210
0.0
220
0.0
230
1.0
 70
     8
 71
     3
 72
    12
 73
     8
 74
     0
 42
0.0000000001
 43
0.0000000001
 12
1.0
 22
0.0
 32
0.0
 13
1.0
 23
0.0
 33
0.0
 40
0.0
 40
0.0
 40
0.0
 40
0.0
 40
0.3333333333333333
 40
0.3333333333333333
 40
0.3333333333333333
 40
0.3333333333333333
 40
1.0
 40
1.0
 40
1.0
 40
1.0
 10
69.7281
 20
40.812
 30
0.0
 10
69.7281
 20
41.0772
 30
0.0
 10
69.6228
 20
41.3315
 30
0.0
 10
69.4352
 20
41.5191
 30
0.0
 10
69.4352
 20
41.5191
 30
0.0
 10
69.2477
 20
41.7066
 30
0.0
 10
68.9934
 20
41.812
 30
0.0
 10
68.7281
 20
41.812
 30
0.0
  0
SPLINE
  5
AE
330
1F
100
AcDbEntity
  8
Plan 1
370
     9
100
AcDbSpline
210
0.0
220
0.0
230
1.0
 70
    24
 71
     3
 72
     8
 73
     4
 74
     0
 42
0.0000000001
 43
0.0000000001
 12
1.0
 22
0.0
 32
0.0
 13
1.0
 23
0.0
 33
0.0
 40
0.0
 40
0.0
 40
0.0
 40
0.0
 40
1.0
 40
1.0
 40
1.0
 40
1.0
 10
28.6975
 20
15.1761
 30
0.0
 10
28.6975
 20
15.1761
 30
0.0
 10
28.6975
 20
40.812
 30
0.0
 10
28.6975
 20
40.812
 30
0.0
  0
SPLINE
  5
AF
330
1F
100
AcDbEntity
  8
Plan 1
370
     9
100
AcDbSpline
210
0.0
220
0.0
230
1.0
 70
     8
 71
     3
 72
    12
 73
     8
 74
     0
 42
0.0000000001
 43
0.0000000001
 12
1.0
 22
0.0
 32
0.0
 13
1.0
 23
0.0
 33
0.0
 40
0.0
 40
0.0
 40
0.0
 40
0.0
 40
0.3333333333333333
 40
0.3333333333333333
 40
0.3333333333333333
 40
0.3333333333333333
 40
1.0
 40
1.0
 40
1.0
 40
1.0
 10
29.6975
 20
41.812
 30
0.0
 10
29.4323
 20
41.812
 30
0.0
 10
29.1779
 20
41.7066
 30
0.0
 10
28.9904
 20
41.5191
 30
0.0
 10
28.9904
 20
41.5191
 30
0.0
 10
28.8028
 20
41.3315
 30
0.0
 10
28.6975
 20
41.0772
 30
0.0
 10
28.6975
 20
40.812
 30
0.0
  0
SPLINE
  5
B0
330
1F
100
AcDbEntity
  8
Plan 1
370
     9
100
AcDbSpline
210
0.0
220
0.0
230
1.0
 70
    24
 71
     3
 72
     8
 73
     4
 74
     0
 42
0.0000000001
 43
0.0000000001
 12
1.0
 22
0.0
 32
0.0
 13
1.0
 23
0.0
 33
0.0
 40
0.0
 40
0.0
 40
0.0
 40
0.0
 40
1.0
 40
1.0
 40
1.0
 40
1.0
 10
61.6201
 20
13.1559
 30
0.0
 10
61.6201
 20
13.1559
 30
0.0
 10
60.4797
 20
10.3721
 30
0.0
 10
60.4797
 20
10.3721
 30
0.0
  0
SPLINE
  5
B1
330
1F
100
AcDbEntity
  8
Plan 1
370
     9
100
AcDbSpline
210
0.0
220
0.0
230
1.0
 70
     8
 71
     3
 72
     8
 73
     4
 74
     0
 42
0.0000000001
 43
0.0000000001
 12
1.0
 22
0.0
 32
0.0
 13
1.0
 23
0.0
 33
0.0
 40
0.0
 40
0.0
 40
0.0
 40
0.0
 40
1.0
 40
1.0
 40
1.0
 40
1.0
 10
63.0081
 20
14.0873
 30
0.0
 10
62.3993
 20
14.0873
 30
0.0
 10
61.8508
 20
13.7193
 30
0.0
 10
61.6201
 20
13.1559
 30
0.0
  0
SPLINE
  5
B2
330
1F
100
AcDbEntity
  8
Plan 1
370
     9
100
AcDbSpline
210
0.0
220
0.0
230
1.0
 70
     8
 71
     3
 72
     8
 73
     4
 74
     0
 42
0.0000000001
 43
0.0000000001
 12
1.0
 22
0.0
 32
0.0
 13
1.0
 23
0.0
 33
0.0
 40
0.0
 40
0.0
 40
0.0
 40
0.0
 40
1.0
 40
1.0
 40
1.0
 40
1.0
 10
37.4235
 20
13.2349
 30
0.0
 10
37.1953
 20
13.8034
 30
0.0
 10
36.6442
 20
14.1761
 30
0.0
 10
36.0315
 20
14.1761
 30
0.0
  0
SPLINE
  5
B3
330
1F
100
AcDbEntity
  8
Plan 1
370
     9
100
AcDbSpline
210
0.0
220
0.0
230
1.0
 70
     8
 71
     3
 72
     8
 73
     4
 74
     0
 42
0.0000000001
 43
0.0000000001
 12
1.0
 22
0.0
 32
0.0
 13
1.0
 23
0.0
 33
0.0
 40
0.0
 40
0.0
 40
0.0
 40
0.0
 40
1.0
 40
1.0
 40
1.0
 40
1.0
 10
38.5701
 20
10.3787
 30
0.0
 10
38.7222
 20
9.9996
 30
0.0
 10
39.0896
 20
9.7512
 30
0.0
 10
39.4981
 20
9.7512
 30
0.0
  0
SPLINE
  5
B4
330
1F
100
AcDbEntity
  8
Plan 1
370
     9
100
AcDbSpline
210
0.0
220
0.0
230
1.0
 70
    24
 71
     3
 72
     8
 73
     4
 74
     0
 42
0.0000000001
 43
0.0000000001
 12
1.0
 22
0.0
 32
0.0
 13
1.0
 23
0.0
 33
0.0
 40
0.0
 40
0.0
 40
0.0
 40
0.0
 40
1.0
 40
1.0
 40
1.0
 40
1.0
 10
68.7281
 20
14.0873
 30
0.0
 10
68.7281
 20
14.0873
 30
0.0
 10
63.0081
 20
14.0873
 30
0.0
 10
63.0081
 20
14.0873
 30
0.0
  0
SPLINE
  5
B5
330
1F
100
AcDbEntity
  8
Plan 1
370
     9
100
AcDbSpline
210
0.0
220
0.0
230
1.0
 70
    24
 71
     3
 72
     8
 73
     4
 74
     0
 42
0.0000000001
 43
0.0000000001
 12
1.0
 22
0.0
 32
0.0
 13
1.0
 23
0.0
 33
0.0
 40
0.0
 40
0.0
 40
0.0
 40
0.0
 40
1.0
 40
1.0
 40
1.0
 40
1.0
 10
29.6975
 20
41.812
 30
0.0
 10
29.6975
 20
41.812
 30
0.0
 10
31.0066
 20
41.812
 30
0.0
 10
31.0066
 20
41.812
 30
0.0
  0
SPLINE
  5
B6
330
1F
100
AcDbEntity
  8
Plan 1
370
     9
100
AcDbSpline
210
0.0
220
0.0
230
1.0
 70
    24
 71
     3
 72
     8
 73
     4
 74
     0
 42
0.0000000001
 43
0.0000000001
 12
1.0
 22
0.0
 32
0.0
 13
1.0
 23
0.0
 33
0.0
 40
0.0
 40
0.0
 40
0.0
 40
0.0
 40
1.0
 40
1.0
 40
1.0
 40
1.0
 10
31.0066
 20
41.812
 30
0.0
 10
31.0066
 20
41.812
 30
0.0
 10
32.1949
 20
41.812
 30
0.0
 10
32.1949
 20
41.812
 30
0.0
  0
SPLINE
  5
B7
330
1F
100
AcDbEntity
  8
Plan 1
370
     9
100
AcDbSpline
210
0.0
220
0.0
230
1.0
 70
    24
 71
     3
 72
     8
 73
     4
 74
     0
 42
0.0000000001
 43
0.0000000001
 12
1.0
 22
0.0
 32
0.0
 13
1.0
 23
0.0
 33
0.0
 40
0.0
 40
0.0
 40
0.0
 40
0.0
 40
1.0
 40
1.0
 40
1.0
 40
1.0
 10
32.1949
 20
41.812
 30
0.0
 10
32.1949
 20
41.812
 30
0.0
 10
38.5427
 20
41.812
 30
0.0
 10
38.5427
 20
41.812
 30
0.0
  0
SPLINE
  5
B8
330
1F
100
AcDbEntity
  8
Plan 1
370
     9
100
AcDbSpline
210
0.0
220
0.0
230
1.0
 70
     8
 71
     3
 72
    12
 73
     8
 74
     0
 42
0.0000000001
 43
0.0000000001
 12
1.0
 22
0.0
 32
0.0
 13
1.0
 23
0.0
 33
0.0
 40
0.0
 40
0.0
 40
0.0
 40
0.0
 40
0.3333333333333333
 40
0.3333333333333333
 40
0.3333333333333333
 40
0.3333333333333333
 40
1.0
 40
1.0
 40
1.0
 40
1.0
 10
28.6975
 20
15.1761
 30
0.0
 10
28.6975
 20
14.9109
 30
0.0
 10
28.8028
 20
14.6565
 30
0.0
 10
28.9904
 20
14.469
 30
0.0
 10
28.9904
 20
14.469
 30
0.0
 10
29.1779
 20
14.2814
 30
0.0
 10
29.4323
 20
14.1761
 30
0.0
 10
29.6975
 20
14.1761
 30
0.0
  0
SPLINE
  5
B9
330
1F
100
AcDbEntity
  8
Plan 1
370
     9
100
AcDbSpline
210
0.0
220
0.0
230
1.0
 70
    24
 71
     3
 72
     8
 73
     4
 74
     0
 42
0.0000000001
 43
0.0000000001
 12
1.0
 22
0.0
 32
0.0
 13
1.0
 23
0.0
 33
0.0
 40
0.0
 40
0.0
 40
0.0
 40
0.0
 40
1.0
 40
1.0
 40
1.0
 40
1.0
 10
36.0315
 20
14.1761
 30
0.0
 10
36.0315
 20
14.1761
 30
0.0
 10
29.6975
 20
14.1761
 30
0.0
 10
29.6975
 20
14.1761
 30
0.0
  0
SPLINE
  5
BA
330
1F
100
AcDbEntity
  8
Plan 1
370
     9
100
AcDbSpline
210
0.0
220
0.0
230
1.0
 70
     8
 71
     3
 72
     8
 73
     4
 74
     0
 42
0.0000000001
 43
0.0000000001
 12
1.0
 22
0.0
 32
0.0
 13
1.0
 23
0.0
 33
0.0
 40
0.0
 40
0.0
 40
0.0
 40
0.0
 40
1.0
 40
1.0
 40
1.0
 40
1.0
 10
60.5561
 20
41.812
 30
0.0
 10
53.6041
 20
45.1772
 30
0.0
 10
45.4947
 20
45.1772
 30
0.0
 10
38.5427
 20
41.812
 30
0.0
  0
SPLINE
  5
BB
330
1F
100
AcDbEntity
  8
Plan 1
370
     9
100
AcDbSpline
210
0.0
220
0.0
230
1.0
 70
     8
 71
     3
 72
     8
 73
     4
 74
     0
 42
0.0000000001
 43
0.0000000001
 12
1.0
 22
0.0
 32
0.0
 13
1.0
 23
0.0
 33
0.0
 40
0.0
 40
0.0
 40
0.0
 40
0.0
 40
1.0
 40
1.0
 40
1.0
 40
1.0
 10
68.7281
 20
14.0873
 30
0.0
 10
69.2804
 20
14.0873
 30
0.0
 10
69.7281
 20
14.535
 30
0.0
 10
69.7281
 20
15.0873
 30
0.0
  0
SPLINE
  5
BC
330
1F
100
AcDbEntity
  8
Plan 1
370
     9
100
AcDbSpline
210
0.0
220
0.0
230
1.0
 70
    24
 71
     3
 72
     8
 73
     4
 74
     0
 42
0.0000000001
 43
0.0000000001
 12
1.0
 22
0.0
 32
0.0
 13
1.0
 23
0.0
 33
0.0
 40
0.0
 40
0.0
 40
0.0
 40
0.0
 40
1.0
 40
1.0
 40
1.0
 40
1.0
 10
69.7281
 20
40.812
 30
0.0
 10
69.7281
 20
40.812
 30
0.0
 10
69.7281
 20
15.0873
 30
0.0
 10
69.7281
 20
15.0873
 30
0.0
  0
SPLINE
  5
BD
330
1F
100
AcDbEntity
  8
Plan 1
370
     9
100
AcDbSpline
210
0.0
220
0.0
230
1.0
 70
    24
 71
     3
 72
     8
 73
     4
 74
     0
 42
0.0000000001
 43
0.0000000001
 12
1.0
 22
0.0
 32
0.0
 13
1.0
 23
0.0
 33
0.0
 40
0.0
 40
0.0
 40
0.0
 40
0.0
 40
1.0
 40
1.0
 40
1.0
 40
1.0
 10
38.5701
 20
10.3787
 30
0.0
 10
38.5701
 20
10.3787
 30
0.0
 10
37.4235
 20
13.2349
 30
0.0
 10
37.4235
 20
13.2349
 30
0.0
  0
SPLINE
  5
BE
330
1F
100
AcDbEntity
  8
Plan 1
370
     9
100
AcDbSpline
210
0.0
220
0.0
230
1.0
 70
    24
 71
     3
 72
     8
 73
     4
 74
     0
 42
0.0000000001
 43
0.0000000001
 12
1.0
 22
0.0
 32
0.0
 13
1.0
 23
0.0
 33
0.0
 40
0.0
 40
0.0
 40
0.0
 40
0.0
 40
1.0
 40
1.0
 40
1.0
 40
1.0
 10
41.832
 20
12.2779
 30
0.0
 10
41.832
 20
12.2779
 30
0.0
 10
41.8341
 20
12.2763
 30
0.0
 10
41.8341
 20
12.2763
 30
0.0
  0
SPLINE
  5
BF
330
1F
100
AcDbEntity
  8
Plan 1
370
     9
100
AcDbSpline
210
0.0
220
0.0
230
1.0
 70
    24
 71
     3
 72
     8
 73
     4
 74
     0
 42
0.0000000001
 43
0.0000000001
 12
1.0
 22
0.0
 32
0.0
 13
1.0
 23
0.0
 33
0.0
 40
0.0
 40
0.0
 40
0.0
 40
0.0
 40
1.0
 40
1.0
 40
1.0
 40
1.0
 10
43.0034
 20
13.0819
 30
0.0
 10
43.0034
 20
13.0819
 30
0.0
 10
43.0603
 20
13.0687
 30
0.0
 10
43.0603
 20
13.0687
 30
0.0
  0
SPLINE
  5
C0
330
1F
100
AcDbEntity
  8
Plan 1
370
     9
100
AcDbSpline
210
0.0
220
0.0
230
1.0
 70
    24
 71
     3
 72
     8
 73
     4
 74
     0
 42
0.0000000001
 43
0.0000000001
 12
1.0
 22
0.0
 32
0.0
 13
1.0
 23
0.0
 33
0.0
 40
0.0
 40
0.0
 40
0.0
 40
0.0
 40
1.0
 40
1.0
 40
1.0
 40
1.0
 10
41.847
 20
14.1367
 30
0.0
 10
41.847
 20
14.1367
 30
0.0
 10
41.847
 20
14.1924
 30
0.0
 10
41.847
 20
14.1924
 30
0.0
  0
SPLINE
  5
C1
330
1F
100
AcDbEntity
  8
Plan 1
370
     9
100
AcDbSpline
210
0.0
220
0.0
230
1.0
 70
     8
 71
     3
 72
     8
 73
     4
 74
     0
 42
0.0000000001
 43
0.0000000001
 12
1.0
 22
0.0
 32
0.0
 13
1.0
 23
0.0
 33
0.0
 40
0.0
 40
0.0
 40
0.0
 40
0.0
 40
1.0
 40
1.0
 40
1.0
 40
1.0
 10
59.0726
 20
10.5568
 30
0.0
 10
59.4596
 20
10.5568
 30
0.0
 10
59.8082
 20
10.7908
 30
0.0
 10
59.9548
 20
11.1488
 30
0.0
  0
SPLINE
  5
C2
330
1F
100
AcDbEntity
  8
Plan 1
370
     9
100
AcDbSpline
210
0.0
220
0.0
230
1.0
 70
    24
 71
     3
 72
     8
 73
     4
 74
     0
 42
0.0000000001
 43
0.0000000001
 12
1.0
 22
0.0
 32
0.0
 13
1.0
 23
0.0
 33
0.0
 40
0.0
 40
0.0
 40
0.0
 40
0.0
 40
1.0
 40
1.0
 40
1.0
 40
1.0
 10
59.0726
 20
10.5568
 30
0.0
 10
59.0726
 20
10.5568
 30
0.0
 10
39.9507
 20
10.5568
 30
0.0
 10
39.9507
 20
10.5568
 30
0.0
  0
SPLINE
  5
C3
330
1F
100
AcDbEntity
  8
Plan 1
370
     9
100
AcDbSpline
210
0.0
220
0.0
230
1.0
 70
    24
 71
     3
 72
     8
 73
     4
 74
     0
 42
0.0000000001
 43
0.0000000001
 12
1.0
 22
0.0
 32
0.0
 13
1.0
 23
0.0
 33
0.0
 40
0.0
 40
0.0
 40
0.0
 40
0.0
 40
1.0
 40
1.0
 40
1.0
 40
1.0
 10
60.0277
 20
41.124
 30
0.0
 10
60.0277
 20
41.124
 30
0.0
 10
64.1044
 20
41.124
 30
0.0
 10
64.1044
 20
41.124
 30
0.0
  0
SPLINE
  5
C4
330
1F
100
AcDbEntity
  8
Plan 1
370
     9
100
AcDbSpline
210
0.0
220
0.0
230
1.0
 70
    24
 71
     3
 72
     8
 73
     4
 74
     0
 42
0.0000000001
 43
0.0000000001
 12
1.0
 22
0.0
 32
0.0
 13
1.0
 23
0.0
 33
0.0
 40
0.0
 40
0.0
 40
0.0
 40
0.0
 40
1.0
 40
1.0
 40
1.0
 40
1.0
 10
64.1044
 20
41.124
 30
0.0
 10
64.1044
 20
41.124
 30
0.0
 10
65.7241
 20
41.124
 30
0.0
 10
65.7241
 20
41.124
 30
0.0
  0
SPLINE
  5
C5
330
1F
100
AcDbEntity
  8
Plan 1
370
     9
100
AcDbSpline
210
0.0
220
0.0
230
1.0
 70
    24
 71
     3
 72
     8
 73
     4
 74
     0
 42
0.0000000001
 43
0.0000000001
 12
1.0
 22
0.0
 32
0.0
 13
1.0
 23
0.0
 33
0.0
 40
0.0
 40
0.0
 40
0.0
 40
0.0
 40
1.0
 40
1.0
 40
1.0
 40
1.0
 10
65.7241
 20
41.124
 30
0.0
 10
65.7241
 20
41.124
 30
0.0
 10
67.8189
 20
41.124
 30
0.0
 10
67.8189
 20
41.124
 30
0.0
  0
SPLINE
  5
C6
330
1F
100
AcDbEntity
  8
Plan 1
370
     9
100
AcDbSpline
210
0.0
220
0.0
230
1.0
 70
     8
 71
     3
 72
    12
 73
     8
 74
     0
 42
0.0000000001
 43
0.0000000001
 12
1.0
 22
0.0
 32
0.0
 13
1.0
 23
0.0
 33
0.0
 40
0.0
 40
0.0
 40
0.0
 40
0.0
 40
0.3333333333333333
 40
0.3333333333333333
 40
0.3333333333333333
 40
0.3333333333333333
 40
1.0
 40
1.0
 40
1.0
 40
1.0
 10
68.7724
 20
40.1706
 30
0.0
 10
68.7724
 20
40.4234
 30
0.0
 10
68.672
 20
40.6659
 30
0.0
 10
68.4931
 20
40.8447
 30
0.0
 10
68.4931
 20
40.8447
 30
0.0
 10
68.3143
 20
41.0235
 30
0.0
 10
68.0719
 20
41.124
 30
0.0
 10
67.8189
 20
41.124
 30
0.0
  0
SPLINE
  5
C7
330
1F
100
AcDbEntity
  8
Plan 1
370
     9
100
AcDbSpline
210
0.0
220
0.0
230
1.0
 70
    24
 71
     3
 72
     8
 73
     4
 74
     0
 42
0.0000000001
 43
0.0000000001
 12
1.0
 22
0.0
 32
0.0
 13
1.0
 23
0.0
 33
0.0
 40
0.0
 40
0.0
 40
0.0
 40
0.0
 40
1.0
 40
1.0
 40
1.0
 40
1.0
 10
29.6532
 20
15.729
 30
0.0
 10
29.6532
 20
15.729
 30
0.0
 10
29.6532
 20
40.1706
 30
0.0
 10
29.6532
 20
40.1706
 30
0.0
  0
SPLINE
  5
C8
330
1F
100
AcDbEntity
  8
Plan 1
370
     9
100
AcDbSpline
210
0.0
220
0.0
230
1.0
 70
     8
 71
     3
 72
    12
 73
     8
 74
     0
 42
0.0000000001
 43
0.0000000001
 12
1.0
 22
0.0
 32
0.0
 13
1.0
 23
0.0
 33
0.0
 40
0.0
 40
0.0
 40
0.0
 40
0.0
 40
0.3333333333333333
 40
0.3333333333333333
 40
0.3333333333333333
 40
0.3333333333333333
 40
1.0
 40
1.0
 40
1.0
 40
1.0
 10
30.6067
 20
41.124
 30
0.0
 10
30.3538
 20
41.124
 30
0.0
 10
30.1113
 20
41.0235
 30
0.0
 10
29.9325
 20
40.8447
 30
0.0
 10
29.9325
 20
40.8447
 30
0.0
 10
29.7536
 20
40.6659
 30
0.0
 10
29.6532
 20
40.4234
 30
0.0
 10
29.6532
 20
40.1706
 30
0.0
  0
SPLINE
  5
C9
330
1F
100
AcDbEntity
  8
Plan 1
370
     9
100
AcDbSpline
210
0.0
220
0.0
230
1.0
 70
    24
 71
     3
 72
     8
 73
     4
 74
     0
 42
0.0000000001
 43
0.0000000001
 12
1.0
 22
0.0
 32
0.0
 13
1.0
 23
0.0
 33
0.0
 40
0.0
 40
0.0
 40
0.0
 40
0.0
 40
1.0
 40
1.0
 40
1.0
 40
1.0
 10
61.0421
 20
13.8029
 30
0.0
 10
61.0421
 20
13.8029
 30
0.0
 10
59.9548
 20
11.1488
 30
0.0
 10
59.9548
 20
11.1488
 30
0.0
  0
SPLINE
  5
CA
330
1F
100
AcDbEntity
  8
Plan 1
370
     9
100
AcDbSpline
210
0.0
220
0.0
230
1.0
 70
     8
 71
     3
 72
     8
 73
     4
 74
     0
 42
0.0000000001
 43
0.0000000001
 12
1.0
 22
0.0
 32
0.0
 13
1.0
 23
0.0
 33
0.0
 40
0.0
 40
0.0
 40
0.0
 40
0.0
 40
1.0
 40
1.0
 40
1.0
 40
1.0
 10
62.3654
 20
14.6909
 30
0.0
 10
61.785
 20
14.6909
 30
0.0
 10
61.262
 20
14.34
 30
0.0
 10
61.0421
 20
13.8029
 30
0.0
  0
SPLINE
  5
CB
330
1F
100
AcDbEntity
  8
Plan 1
370
     9
100
AcDbSpline
210
0.0
220
0.0
230
1.0
 70
     8
 71
     3
 72
     8
 73
     4
 74
     0
 42
0.0000000001
 43
0.0000000001
 12
1.0
 22
0.0
 32
0.0
 13
1.0
 23
0.0
 33
0.0
 40
0.0
 40
0.0
 40
0.0
 40
0.0
 40
1.0
 40
1.0
 40
1.0
 40
1.0
 10
37.9727
 20
13.8782
 30
0.0
 10
37.7552
 20
14.4202
 30
0.0
 10
37.2297
 20
14.7755
 30
0.0
 10
36.6456
 20
14.7755
 30
0.0
  0
SPLINE
  5
CC
330
1F
100
AcDbEntity
  8
Plan 1
370
     9
100
AcDbSpline
210
0.0
220
0.0
230
1.0
 70
     8
 71
     3
 72
     8
 73
     4
 74
     0
 42
0.0000000001
 43
0.0000000001
 12
1.0
 22
0.0
 32
0.0
 13
1.0
 23
0.0
 33
0.0
 40
0.0
 40
0.0
 40
0.0
 40
0.0
 40
1.0
 40
1.0
 40
1.0
 40
1.0
 10
39.0659
 20
11.1551
 30
0.0
 10
39.2109
 20
10.7936
 30
0.0
 10
39.5612
 20
10.5568
 30
0.0
 10
39.9507
 20
10.5568
 30
0.0
  0
SPLINE
  5
CD
330
1F
100
AcDbEntity
  8
Plan 1
370
     9
100
AcDbSpline
210
0.0
220
0.0
230
1.0
 70
    24
 71
     3
 72
     8
 73
     4
 74
     0
 42
0.0000000001
 43
0.0000000001
 12
1.0
 22
0.0
 32
0.0
 13
1.0
 23
0.0
 33
0.0
 40
0.0
 40
0.0
 40
0.0
 40
0.0
 40
1.0
 40
1.0
 40
1.0
 40
1.0
 10
67.8189
 20
14.6909
 30
0.0
 10
67.8189
 20
14.6909
 30
0.0
 10
62.3654
 20
14.6909
 30
0.0
 10
62.3654
 20
14.6909
 30
0.0
  0
SPLINE
  5
CE
330
1F
100
AcDbEntity
  8
Plan 1
370
     9
100
AcDbSpline
210
0.0
220
0.0
230
1.0
 70
    24
 71
     3
 72
     8
 73
     4
 74
     0
 42
0.0000000001
 43
0.0000000001
 12
1.0
 22
0.0
 32
0.0
 13
1.0
 23
0.0
 33
0.0
 40
0.0
 40
0.0
 40
0.0
 40
0.0
 40
1.0
 40
1.0
 40
1.0
 40
1.0
 10
30.6067
 20
41.124
 30
0.0
 10
30.6067
 20
41.124
 30
0.0
 10
31.8548
 20
41.124
 30
0.0
 10
31.8548
 20
41.124
 30
0.0
  0
SPLINE
  5
CF
330
1F
100
AcDbEntity
  8
Plan 1
370
     9
100
AcDbSpline
210
0.0
220
0.0
230
1.0
 70
    24
 71
     3
 72
     8
 73
     4
 74
     0
 42
0.0000000001
 43
0.0000000001
 12
1.0
 22
0.0
 32
0.0
 13
1.0
 23
0.0
 33
0.0
 40
0.0
 40
0.0
 40
0.0
 40
0.0
 40
1.0
 40
1.0
 40
1.0
 40
1.0
 10
31.8548
 20
41.124
 30
0.0
 10
31.8548
 20
41.124
 30
0.0
 10
32.9877
 20
41.124
 30
0.0
 10
32.9877
 20
41.124
 30
0.0
  0
SPLINE
  5
D0
330
1F
100
AcDbEntity
  8
Plan 1
370
     9
100
AcDbSpline
210
0.0
220
0.0
230
1.0
 70
    24
 71
     3
 72
     8
 73
     4
 74
     0
 42
0.0000000001
 43
0.0000000001
 12
1.0
 22
0.0
 32
0.0
 13
1.0
 23
0.0
 33
0.0
 40
0.0
 40
0.0
 40
0.0
 40
0.0
 40
1.0
 40
1.0
 40
1.0
 40
1.0
 10
32.9877
 20
41.124
 30
0.0
 10
32.9877
 20
41.124
 30
0.0
 10
39.0398
 20
41.124
 30
0.0
 10
39.0398
 20
41.124
 30
0.0
  0
SPLINE
  5
D1
330
1F
100
AcDbEntity
  8
Plan 1
370
     9
100
AcDbSpline
210
0.0
220
0.0
230
1.0
 70
     8
 71
     3
 72
    12
 73
     8
 74
     0
 42
0.0000000001
 43
0.0000000001
 12
1.0
 22
0.0
 32
0.0
 13
1.0
 23
0.0
 33
0.0
 40
0.0
 40
0.0
 40
0.0
 40
0.0
 40
0.3333333333333333
 40
0.3333333333333333
 40
0.3333333333333333
 40
0.3333333333333333
 40
1.0
 40
1.0
 40
1.0
 40
1.0
 10
29.6532
 20
15.729
 30
0.0
 10
29.6532
 20
15.4761
 30
0.0
 10
29.7536
 20
15.2336
 30
0.0
 10
29.9325
 20
15.0548
 30
0.0
 10
29.9325
 20
15.0548
 30
0.0
 10
30.1113
 20
14.8759
 30
0.0
 10
30.3538
 20
14.7755
 30
0.0
 10
30.6067
 20
14.7755
 30
0.0
  0
SPLINE
  5
D2
330
1F
100
AcDbEntity
  8
Plan 1
370
     9
100
AcDbSpline
210
0.0
220
0.0
230
1.0
 70
    24
 71
     3
 72
     8
 73
     4
 74
     0
 42
0.0000000001
 43
0.0000000001
 12
1.0
 22
0.0
 32
0.0
 13
1.0
 23
0.0
 33
0.0
 40
0.0
 40
0.0
 40
0.0
 40
0.0
 40
1.0
 40
1.0
 40
1.0
 40
1.0
 10
36.6456
 20
14.7755
 30
0.0
 10
36.6456
 20
14.7755
 30
0.0
 10
30.6067
 20
14.7755
 30
0.0
 10
30.6067
 20
14.7755
 30
0.0
  0
SPLINE
  5
D3
330
1F
100
AcDbEntity
  8
Plan 1
370
     9
100
AcDbSpline
210
0.0
220
0.0
230
1.0
 70
     8
 71
     3
 72
     8
 73
     4
 74
     0
 42
0.0000000001
 43
0.0000000001
 12
1.0
 22
0.0
 32
0.0
 13
1.0
 23
0.0
 33
0.0
 40
0.0
 40
0.0
 40
0.0
 40
0.0
 40
1.0
 40
1.0
 40
1.0
 40
1.0
 10
60.0277
 20
41.124
 30
0.0
 10
53.3995
 20
44.3324
 30
0.0
 10
45.6679
 20
44.3324
 30
0.0
 10
39.0398
 20
41.124
 30
0.0
  0
SPLINE
  5
D4
330
1F
100
AcDbEntity
  8
Plan 1
370
     9
100
AcDbSpline
210
0.0
220
0.0
230
1.0
 70
     8
 71
     3
 72
     8
 73
     4
 74
     0
 42
0.0000000001
 43
0.0000000001
 12
1.0
 22
0.0
 32
0.0
 13
1.0
 23
0.0
 33
0.0
 40
0.0
 40
0.0
 40
0.0
 40
0.0
 40
1.0
 40
1.0
 40
1.0
 40
1.0
 10
67.8189
 20
14.6909
 30
0.0
 10
68.3455
 20
14.6909
 30
0.0
 10
68.7724
 20
15.1177
 30
0.0
 10
68.7724
 20
15.6443
 30
0.0
  0
SPLINE
  5
D5
330
1F
100
AcDbEntity
  8
Plan 1
370
     9
100
AcDbSpline
210
0.0
220
0.0
230
1.0
 70
    24
 71
     3
 72
     8
 73
     4
 74
     0
 42
0.0000000001
 43
0.0000000001
 12
1.0
 22
0.0
 32
0.0
 13
1.0
 23
0.0
 33
0.0
 40
0.0
 40
0.0
 40
0.0
 40
0.0
 40
1.0
 40
1.0
 40
1.0
 40
1.0
 10
68.7724
 20
40.1706
 30
0.0
 10
68.7724
 20
40.1706
 30
0.0
 10
68.7724
 20
15.6443
 30
0.0
 10
68.7724
 20
15.6443
 30
0.0
  0
SPLINE
  5
D6
330
1F
100
AcDbEntity
  8
Plan 1
370
     9
100
AcDbSpline
210
0.0
220
0.0
230
1.0
 70
    24
 71
     3
 72
     8
 73
     4
 74
     0
 42
0.0000000001
 43
0.0000000001
 12
1.0
 22
0.0
 32
0.0
 13
1.0
 23
0.0
 33
0.0
 40
0.0
 40
0.0
 40
0.0
 40
0.0
 40
1.0
 40
1.0
 40
1.0
 40
1.0
 10
39.0659
 20
11.1551
 30
0.0
 10
39.0659
 20
11.1551
 30
0.0
 10
37.9727
 20
13.8782
 30
0.0
 10
37.9727
 20
13.8782
 30
0.0
  0
SPLINE
  5
D7
330
1F
100
AcDbEntity
  8
Plan 1
370
     9
100
AcDbSpline
210
0.0
220
0.0
230
1.0
 70
    24
 71
     3
 72
     8
 73
     4
 74
     0
 42
0.0000000001
 43
0.0000000001
 12
1.0
 22
0.0
 32
0.0
 13
1.0
 23
0.0
 33
0.0
 40
0.0
 40
0.0
 40
0.0
 40
0.0
 40
1.0
 40
1.0
 40
1.0
 40
1.0
 10
-131.3199
 20
100.1287
 30
0.0
 10
-131.3199
 20
100.1287
 30
0.0
 10
130.3001
 20
100.1287
 30
0.0
 10
130.3001
 20
100.1287
 30
0.0
  0
SPLINE
  5
D8
330
1F
100
AcDbEntity
  8
Plan 1
370
     9
100
AcDbSpline
210
0.0
220
0.0
230
1.0
 70
    24
 71
     3
 72
     8
 73
     4
 74
     0
 42
0.0000000001
 43
0.0000000001
 12
1.0
 22
0.0
 32
0.0
 13
1.0
 23
0.0
 33
0.0
 40
0.0
 40
0.0
 40
0.0
 40
0.0
 40
1.0
 40
1.0
 40
1.0
 40
1.0
 10
-131.3199
 20
100.1287
 30
0.0
 10
-131.3199
 20
100.1287
 30
0.0
 10
-131.3199
 20
-97.9913
 30
0.0
 10
-131.3199
 20
-97.9913
 30
0.0
  0
SPLINE
  5
D9
330
1F
100
AcDbEntity
  8
Plan 1
370
     9
100
AcDbSpline
210
0.0
220
0.0
230
1.0
 70
    24
 71
     3
 72
     8
 73
     4
 74
     0
 42
0.0000000001
 43
0.0000000001
 12
1.0
 22
0.0
 32
0.0
 13
1.0
 23
0.0
 33
0.0
 40
0.0
 40
0.0
 40
0.0
 40
0.0
 40
1.0
 40
1.0
 40
1.0
 40
1.0
 10
130.3001
 20
-97.9913
 30
0.0
 10
130.3001
 20
-97.9913
 30
0.0
 10
-131.3199
 20
-97.9913
 30
0.0
 10
-131.3199
 20
-97.9913
 30
0.0
  0
SPLINE
  5
DA
330
1F
100
AcDbEntity
  8
Plan 1
370
     9
100
AcDbSpline
210
0.0
220
0.0
230
1.0
 70
    24
 71
     3
 72
     8
 73
     4
 74
     0
 42
0.0000000001
 43
0.0000000001
 12
1.0
 22
0.0
 32
0.0
 13
1.0
 23
0.0
 33
0.0
 40
0.0
 40
0.0
 40
0.0
 40
0.0
 40
1.0
 40
1.0
 40
1.0
 40
1.0
 10
130.3001
 20
-97.9913
 30
0.0
 10
130.3001
 20
-97.9913
 30
0.0
 10
130.3001
 20
100.1287
 30
0.0
 10
130.3001
 20
100.1287
 30
0.0
  0
SPLINE
  5
DB
330
1F
100
AcDbEntity
  8
Plan 1
370
     9
100
AcDbSpline
210
0.0
220
0.0
230
1.0
 70
    11
 71
     3
 72
    20
 73
    16
 74
     0
 42
0.0000000001
 43
0.0000000001
 12
1.0
 22
0.0
 32
0.0
 13
1.0
 23
0.0
 33
0.0
 40
0.0
 40
0.0
 40
0.0
 40
0.0
 40
0.2
 40
0.2
 40
0.2
 40
0.2
 40
0.4
 40
0.4
 40
0.4
 40
0.4
 40
0.6
 40
0.6
 40
0.6
 40
0.6
 40
1.0
 40
1.0
 40
1.0
 40
1.0
 10
38.9713
 20
63.8346
 30
0.0
 10
38.9713
 20
65.6539
 30
0.0
 10
37.4965
 20
67.1287
 30
0.0
 10
35.6772
 20
67.1287
 30
0.0
 10
35.6772
 20
67.1287
 30
0.0
 10
33.858
 20
67.1287
 30
0.0
 10
32.3832
 20
65.6539
 30
0.0
 10
32.3832
 20
63.8346
 30
0.0
 10
32.3832
 20
63.8346
 30
0.0
 10
32.3832
 20
62.0154
 30
0.0
 10
33.858
 20
60.5405
 30
0.0
 10
35.6772
 20
60.5405
 30
0.0
 10
35.6772
 20
60.5405
 30
0.0
 10
37.4965
 20
60.5405
 30
0.0
 10
38.9713
 20
62.0153
 30
0.0
 10
38.9713
 20
63.8346
 30
0.0
  0
SPLINE
  5
DC
330
1F
100
AcDbEntity
  8
Plan 1
370
     9
100
AcDbSpline
210
0.0
220
0.0
230
1.0
 70
    24
 71
     3
 72
     8
 73
     4
 74
     0
 42
0.0000000001
 43
0.0000000001
 12
1.0
 22
0.0
 32
0.0
 13
1.0
 23
0.0
 33
0.0
 40
0.0
 40
0.0
 40
0.0
 40
0.0
 40
1.0
 40
1.0
 40
1.0
 40
1.0
 10
32.1935
 20
60.7258
 30
0.0
 10
32.1935
 20
60.7258
 30
0.0
 10
32.1761
 20
60.7239
 30
0.0
 10
32.1761
 20
60.7239
 30
0.0
  0
SPLINE
  5
DD
330
1F
100
AcDbEntity
  8
Plan 1
370
     9
100
AcDbSpline
210
0.0
220
0.0
230
1.0
 70
     8
 71
     3
 72
     8
 73
     4
 74
     0
 42
0.0000000001
 43
0.0000000001
 12
1.0
 22
0.0
 32
0.0
 13
1.0
 23
0.0
 33
0.0
 40
0.0
 40
0.0
 40
0.0
 40
0.0
 40
1.0
 40
1.0
 40
1.0
 40
1.0
 10
35.9143
 20
74.3076
 30
0.0
 10
35.6425
 20
74.7562
 30
0.0
 10
35.156
 20
75.0302
 30
0.0
 10
34.6315
 20
75.0302
 30
0.0
  0
SPLINE
  5
DE
330
1F
100
AcDbEntity
  8
Plan 1
370
     9
100
AcDbSpline
210
0.0
220
0.0
230
1.0
 70
    24
 71
     3
 72
     8
 73
     4
 74
     0
 42
0.0000000001
 43
0.0000000001
 12
1.0
 22
0.0
 32
0.0
 13
1.0
 23
0.0
 33
0.0
 40
0.0
 40
0.0
 40
0.0
 40
0.0
 40
1.0
 40
1.0
 40
1.0
 40
1.0
 10
36.5528
 20
73.2541
 30
0.0
 10
36.5528
 20
73.2541
 30
0.0
 10
35.9143
 20
74.3076
 30
0.0
 10
35.9143
 20
74.3076
 30
0.0
  0
SPLINE
  5
DF
330
1F
100
AcDbEntity
  8
Plan 1
370
     9
100
AcDbSpline
210
0.0
220
0.0
230
1.0
 70
     8
 71
     3
 72
     8
 73
     4
 74
     0
 42
0.0000000001
 43
0.0000000001
 12
1.0
 22
0.0
 32
0.0
 13
1.0
 23
0.0
 33
0.0
 40
0.0
 40
0.0
 40
0.0
 40
0.0
 40
1.0
 40
1.0
 40
1.0
 40
1.0
 10
36.5528
 20
73.2541
 30
0.0
 10
36.8247
 20
72.8055
 30
0.0
 10
37.3111
 20
72.5315
 30
0.0
 10
37.8356
 20
72.5315
 30
0.0
  0
SPLINE
  5
E0
330
1F
100
AcDbEntity
  8
Plan 1
370
     9
100
AcDbSpline
210
0.0
220
0.0
230
1.0
 70
     8
 71
     3
 72
     8
 73
     4
 74
     0
 42
0.0000000001
 43
0.0000000001
 12
1.0
 22
0.0
 32
0.0
 13
1.0
 23
0.0
 33
0.0
 40
0.0
 40
0.0
 40
0.0
 40
0.0
 40
1.0
 40
1.0
 40
1.0
 40
1.0
 10
40.6306
 20
71.892
 30
0.0
 10
40.3499
 20
72.2928
 30
0.0
 10
39.8914
 20
72.5315
 30
0.0
 10
39.402
 20
72.5315
 30
0.0
  0
SPLINE
  5
E1
330
1F
100
AcDbEntity
  8
Plan 1
370
     9
100
AcDbSpline
210
0.0
220
0.0
230
1.0
 70
     8
 71
     3
 72
     8
 73
     4
 74
     0
 42
0.0000000001
 43
0.0000000001
 12
1.0
 22
0.0
 32
0.0
 13
1.0
 23
0.0
 33
0.0
 40
0.0
 40
0.0
 40
0.0
 40
0.0
 40
1.0
 40
1.0
 40
1.0
 40
1.0
 10
46.3934
 20
54.1167
 30
0.0
 10
46.2914
 20
60.4845
 30
0.0
 10
44.2842
 20
66.6757
 30
0.0
 10
40.6306
 20
71.892
 30
0.0
  0
SPLINE
  5
E2
330
1F
100
AcDbEntity
  8
Plan 1
370
     9
100
AcDbSpline
210
0.0
220
0.0
230
1.0
 70
     8
 71
     3
 72
    12
 73
     8
 74
     0
 42
0.0000000001
 43
0.0000000001
 12
1.0
 22
0.0
 32
0.0
 13
1.0
 23
0.0
 33
0.0
 40
0.0
 40
0.0
 40
0.0
 40
0.0
 40
0.3333333333333333
 40
0.3333333333333333
 40
0.3333333333333333
 40
0.3333333333333333
 40
1.0
 40
1.0
 40
1.0
 40
1.0
 10
44.8435
 20
52.5935
 30
0.0
 10
45.2539
 20
52.5798
 30
0.0
 10
45.652
 20
52.735
 30
0.0
 10
45.945
 20
53.0228
 30
0.0
 10
45.945
 20
53.0228
 30
0.0
 10
46.2379
 20
53.3107
 30
0.0
 10
46.3999
 20
53.7061
 30
0.0
 10
46.3934
 20
54.1167
 30
0.0
  0
SPLINE
  5
E3
330
1F
100
AcDbEntity
  8
Plan 1
370
     9
100
AcDbSpline
210
0.0
220
0.0
230
1.0
 70
    24
 71
     3
 72
     8
 73
     4
 74
     0
 42
0.0000000001
 43
0.0000000001
 12
1.0
 22
0.0
 32
0.0
 13
1.0
 23
0.0
 33
0.0
 40
0.0
 40
0.0
 40
0.0
 40
0.0
 40
1.0
 40
1.0
 40
1.0
 40
1.0
 10
34.6315
 20
75.0302
 30
0.0
 10
34.6315
 20
75.0302
 30
0.0
 10
31.3355
 20
75.0302
 30
0.0
 10
31.3355
 20
75.0302
 30
0.0
  0
SPLINE
  5
E4
330
1F
100
AcDbEntity
  8
Plan 1
370
     9
100
AcDbSpline
210
0.0
220
0.0
230
1.0
 70
    24
 71
     3
 72
     8
 73
     4
 74
     0
 42
0.0000000001
 43
0.0000000001
 12
1.0
 22
0.0
 32
0.0
 13
1.0
 23
0.0
 33
0.0
 40
0.0
 40
0.0
 40
0.0
 40
0.0
 40
1.0
 40
1.0
 40
1.0
 40
1.0
 10
39.402
 20
72.5315
 30
0.0
 10
39.402
 20
72.5315
 30
0.0
 10
37.8356
 20
72.5315
 30
0.0
 10
37.8356
 20
72.5315
 30
0.0
  0
SPLINE
  5
E5
330
1F
100
AcDbEntity
  8
Plan 1
370
     9
100
AcDbSpline
210
0.0
220
0.0
230
1.0
 70
    24
 71
     3
 72
     8
 73
     4
 74
     0
 42
0.0000000001
 43
0.0000000001
 12
1.0
 22
0.0
 32
0.0
 13
1.0
 23
0.0
 33
0.0
 40
0.0
 40
0.0
 40
0.0
 40
0.0
 40
1.0
 40
1.0
 40
1.0
 40
1.0
 10
29.8355
 20
73.5302
 30
0.0
 10
29.8355
 20
73.5302
 30
0.0
 10
29.8355
 20
54.5457
 30
0.0
 10
29.8355
 20
54.5457
 30
0.0
  0
SPLINE
  5
E6
330
1F
100
AcDbEntity
  8
Plan 1
370
     9
100
AcDbSpline
210
0.0
220
0.0
230
1.0
 70
     8
 71
     3
 72
     8
 73
     4
 74
     0
 42
0.0000000001
 43
0.0000000001
 12
1.0
 22
0.0
 32
0.0
 13
1.0
 23
0.0
 33
0.0
 40
0.0
 40
0.0
 40
0.0
 40
0.0
 40
1.0
 40
1.0
 40
1.0
 40
1.0
 10
29.8355
 20
54.5457
 30
0.0
 10
29.8355
 20
53.7367
 30
0.0
 10
30.4769
 20
53.0735
 30
0.0
 10
31.2854
 20
53.0465
 30
0.0
  0
SPLINE
  5
E7
330
1F
100
AcDbEntity
  8
Plan 1
370
     9
100
AcDbSpline
210
0.0
220
0.0
230
1.0
 70
    24
 71
     3
 72
     8
 73
     4
 74
     0
 42
0.0000000001
 43
0.0000000001
 12
1.0
 22
0.0
 32
0.0
 13
1.0
 23
0.0
 33
0.0
 40
0.0
 40
0.0
 40
0.0
 40
0.0
 40
1.0
 40
1.0
 40
1.0
 40
1.0
 10
31.2854
 20
53.0465
 30
0.0
 10
31.2854
 20
53.0465
 30
0.0
 10
44.8435
 20
52.5935
 30
0.0
 10
44.8435
 20
52.5935
 30
0.0
  0
SPLINE
  5
E8
330
1F
100
AcDbEntity
  8
Plan 1
370
     9
100
AcDbSpline
210
0.0
220
0.0
230
1.0
 70
     8
 71
     3
 72
    12
 73
     8
 74
     0
 42
0.0000000001
 43
0.0000000001
 12
1.0
 22
0.0
 32
0.0
 13
1.0
 23
0.0
 33
0.0
 40
0.0
 40
0.0
 40
0.0
 40
0.0
 40
0.3333333333333333
 40
0.3333333333333333
 40
0.3333333333333333
 40
0.3333333333333333
 40
1.0
 40
1.0
 40
1.0
 40
1.0
 10
31.3355
 20
75.0302
 30
0.0
 10
30.9377
 20
75.0302
 30
0.0
 10
30.5561
 20
74.8721
 30
0.0
 10
30.2748
 20
74.5908
 30
0.0
 10
30.2748
 20
74.5908
 30
0.0
 10
29.9935
 20
74.3095
 30
0.0
 10
29.8355
 20
73.928
 30
0.0
 10
29.8355
 20
73.5302
 30
0.0
  0
SPLINE
  5
E9
330
1F
100
AcDbEntity
  8
Plan 1
370
     9
100
AcDbSpline
210
0.0
220
0.0
230
1.0
 70
    11
 71
     3
 72
    20
 73
    16
 74
     0
 42
0.0000000001
 43
0.0000000001
 12
1.0
 22
0.0
 32
0.0
 13
1.0
 23
0.0
 33
0.0
 40
0.0
 40
0.0
 40
0.0
 40
0.0
 40
0.2
 40
0.2
 40
0.2
 40
0.2
 40
0.4
 40
0.4
 40
0.4
 40
0.4
 40
0.6
 40
0.6
 40
0.6
 40
0.6
 40
1.0
 40
1.0
 40
1.0
 40
1.0
 10
-0.2548
 20
56.06
 30
0.0
 10
-0.2548
 20
58.0233
 30
0.0
 10
-1.8463
 20
59.6148
 30
0.0
 10
-3.8096
 20
59.6148
 30
0.0
 10
-3.8096
 20
59.6148
 30
0.0
 10
-5.7728
 20
59.6148
 30
0.0
 10
-7.3643
 20
58.0233
 30
0.0
 10
-7.3643
 20
56.0601
 30
0.0
 10
-7.3643
 20
56.0601
 30
0.0
 10
-7.3643
 20
54.0968
 30
0.0
 10
-5.7728
 20
52.5053
 30
0.0
 10
-3.8096
 20
52.5053
 30
0.0
 10
-3.8096
 20
52.5053
 30
0.0
 10
-1.8463
 20
52.5053
 30
0.0
 10
-0.2548
 20
54.0968
 30
0.0
 10
-0.2548
 20
56.06
 30
0.0
  0
SPLINE
  5
EA
330
1F
100
AcDbEntity
  8
Plan 1
370
     9
100
AcDbSpline
210
0.0
220
0.0
230
1.0
 70
    11
 71
     3
 72
    20
 73
    16
 74
     0
 42
0.0000000001
 43
0.0000000001
 12
1.0
 22
0.0
 32
0.0
 13
1.0
 23
0.0
 33
0.0
 40
0.0
 40
0.0
 40
0.0
 40
0.0
 40
0.2
 40
0.2
 40
0.2
 40
0.2
 40
0.4
 40
0.4
 40
0.4
 40
0.4
 40
0.6
 40
0.6
 40
0.6
 40
0.6
 40
1.0
 40
1.0
 40
1.0
 40
1.0
 10
7.0442
 20
66.1417
 30
0.0
 10
7.0442
 20
68.2804
 30
0.0
 10
5.3105
 20
70.0141
 30
0.0
 10
3.1718
 20
70.0141
 30
0.0
 10
3.1718
 20
70.0141
 30
0.0
 10
1.0332
 20
70.0141
 30
0.0
 10
-0.7006
 20
68.2804
 30
0.0
 10
-0.7006
 20
66.1417
 30
0.0
 10
-0.7006
 20
66.1417
 30
0.0
 10
-0.7006
 20
64.003
 30
0.0
 10
1.0331
 20
62.2693
 30
0.0
 10
3.1718
 20
62.2693
 30
0.0
 10
3.1718
 20
62.2693
 30
0.0
 10
5.3105
 20
62.2693
 30
0.0
 10
7.0442
 20
64.003
 30
0.0
 10
7.0442
 20
66.1417
 30
0.0
  0
SPLINE
  5
EB
330
1F
100
AcDbEntity
  8
Plan 1
370
     9
100
AcDbSpline
210
0.0
220
0.0
230
1.0
 70
    24
 71
     3
 72
     8
 73
     4
 74
     0
 42
0.0000000001
 43
0.0000000001
 12
1.0
 22
0.0
 32
0.0
 13
1.0
 23
0.0
 33
0.0
 40
0.0
 40
0.0
 40
0.0
 40
0.0
 40
1.0
 40
1.0
 40
1.0
 40
1.0
 10
7.4938
 20
70.2809
 30
0.0
 10
7.4938
 20
70.2809
 30
0.0
 10
7.4833
 20
70.3095
 30
0.0
 10
7.4833
 20
70.3095
 30
0.0
  0
SPLINE
  5
EC
330
1F
100
AcDbEntity
  8
Plan 1
370
     9
100
AcDbSpline
210
0.0
220
0.0
230
1.0
 70
    24
 71
     3
 72
     8
 73
     4
 74
     0
 42
0.0000000001
 43
0.0000000001
 12
1.0
 22
0.0
 32
0.0
 13
1.0
 23
0.0
 33
0.0
 40
0.0
 40
0.0
 40
0.0
 40
0.0
 40
1.0
 40
1.0
 40
1.0
 40
1.0
 10
-0.591
 20
62.0109
 30
0.0
 10
-0.591
 20
62.0109
 30
0.0
 10
-0.5818
 20
62.0478
 30
0.0
 10
-0.5818
 20
62.0478
 30
0.0
  0
SPLINE
  5
ED
330
1F
100
AcDbEntity
  8
Plan 1
370
     9
100
AcDbSpline
210
0.0
220
0.0
230
1.0
 70
    24
 71
     3
 72
     8
 73
     4
 74
     0
 42
0.0000000001
 43
0.0000000001
 12
1.0
 22
0.0
 32
0.0
 13
1.0
 23
0.0
 33
0.0
 40
0.0
 40
0.0
 40
0.0
 40
0.0
 40
1.0
 40
1.0
 40
1.0
 40
1.0
 10
-0.5835
 20
59.5763
 30
0.0
 10
-0.5835
 20
59.5763
 30
0.0
 10
-0.5835
 20
59.5556
 30
0.0
 10
-0.5835
 20
59.5556
 30
0.0
  0
SPLINE
  5
EE
330
1F
100
AcDbEntity
  8
Plan 1
370
     9
100
AcDbSpline
210
0.0
220
0.0
230
1.0
 70
    24
 71
     3
 72
     8
 73
     4
 74
     0
 42
0.0000000001
 43
0.0000000001
 12
1.0
 22
0.0
 32
0.0
 13
1.0
 23
0.0
 33
0.0
 40
0.0
 40
0.0
 40
0.0
 40
0.0
 40
1.0
 40
1.0
 40
1.0
 40
1.0
 10
7.42
 20
61.8818
 30
0.0
 10
7.42
 20
61.8818
 30
0.0
 10
7.4373
 20
61.8971
 30
0.0
 10
7.4373
 20
61.8971
 30
0.0
  0
SPLINE
  5
EF
330
1F
100
AcDbEntity
  8
Plan 1
370
     9
100
AcDbSpline
210
0.0
220
0.0
230
1.0
 70
    24
 71
     3
 72
     8
 73
     4
 74
     0
 42
0.0000000001
 43
0.0000000001
 12
1.0
 22
0.0
 32
0.0
 13
1.0
 23
0.0
 33
0.0
 40
0.0
 40
0.0
 40
0.0
 40
0.0
 40
1.0
 40
1.0
 40
1.0
 40
1.0
 10
-7.0391
 20
59.5762
 30
0.0
 10
-7.0391
 20
59.5762
 30
0.0
 10
-7.0391
 20
59.6007
 30
0.0
 10
-7.0391
 20
59.6007
 30
0.0
  0
SPLINE
  5
F0
330
1F
100
AcDbEntity
  8
Plan 1
370
     9
100
AcDbSpline
210
0.0
220
0.0
230
1.0
 70
     8
 71
     3
 72
    28
 73
    24
 74
     0
 42
0.0000000001
 43
0.0000000001
 12
1.0
 22
0.0
 32
0.0
 13
1.0
 23
0.0
 33
0.0
 40
0.0
 40
0.0
 40
0.0
 40
0.0
 40
0.1428571428571428
 40
0.1428571428571428
 40
0.1428571428571428
 40
0.1428571428571428
 40
0.2857142857142857
 40
0.2857142857142857
 40
0.2857142857142857
 40
0.2857142857142857
 40
0.4285714285714285
 40
0.4285714285714285
 40
0.4285714285714285
 40
0.4285714285714285
 40
0.5714285714285714
 40
0.5714285714285714
 40
0.5714285714285714
 40
0.5714285714285714
 40
0.7142857142857143
 40
0.7142857142857143
 40
0.7142857142857143
 40
0.7142857142857143
 40
1.0
 40
1.0
 40
1.0
 40
1.0
 10
69.2158
 20
46.2637
 30
0.0
 10
69.2158
 20
67.5245
 30
0.0
 10
52.6611
 20
85.109
 30
0.0
 10
31.439
 20
86.3906
 30
0.0
 10
31.439
 20
86.3906
 30
0.0
 10
10.2169
 20
87.6722
 30
0.0
 10
-8.3335
 20
72.2076
 30
0.0
 10
-10.8921
 20
51.1014
 30
0.0
 10
-10.8921
 20
51.1014
 30
0.0
 10
-10.8921
 20
51.1014
 30
0.0
 10
-11.0679
 20
48.9034
 30
0.0
 10
-11.0679
 20
48.9034
 30
0.0
 10
-11.0679
 20
48.9034
 30
0.0
 10
-11.0679
 20
48.9034
 30
0.0
 10
-11.1737
 20
47.263
 30
0.0
 10
-11.1737
 20
47.263
 30
0.0
 10
-11.1737
 20
47.263
 30
0.0
 10
-11.1737
 20
47.263
 30
0.0
 10
-11.2531
 20
46.284
 30
0.0
 10
-11.2531
 20
46.284
 30
0.0
 10
-11.2531
 20
46.284
 30
0.0
 10
-11.2531
 20
46.284
 30
0.0
 10
-10.6974
 20
46.284
 30
0.0
 10
-10.6974
 20
46.284
 30
0.0
  0
SPLINE
  5
F1
330
1F
100
AcDbEntity
  8
Plan 1
370
     9
100
AcDbSpline
210
0.0
220
0.0
230
1.0
 70
    24
 71
     3
 72
     8
 73
     4
 74
     0
 42
0.0000000001
 43
0.0000000001
 12
1.0
 22
0.0
 32
0.0
 13
1.0
 23
0.0
 33
0.0
 40
0.0
 40
0.0
 40
0.0
 40
0.0
 40
1.0
 40
1.0
 40
1.0
 40
1.0
 10
39.4462
 20
46.2637
 30
0.0
 10
39.4462
 20
46.2637
 30
0.0
 10
69.2158
 20
46.2637
 30
0.0
 10
69.2158
 20
46.2637
 30
0.0
  0
SPLINE
  5
F2
330
1F
100
AcDbEntity
  8
Plan 1
370
     9
100
AcDbSpline
210
0.0
220
0.0
230
1.0
 70
    24
 71
     3
 72
     8
 73
     4
 74
     0
 42
0.0000000001
 43
0.0000000001
 12
1.0
 22
0.0
 32
0.0
 13
1.0
 23
0.0
 33
0.0
 40
0.0
 40
0.0
 40
0.0
 40
0.0
 40
1.0
 40
1.0
 40
1.0
 40
1.0
 10
-10.7418
 20
46.2901
 30
0.0
 10
-10.7418
 20
46.2901
 30
0.0
 10
40.1333
 20
46.2637
 30
0.0
 10
40.1333
 20
46.2637
 30
0.0
  0
SPLINE
  5
F3
330
1F
100
AcDbEntity
  8
Plan 1
370
     9
100
AcDbSpline
210
0.0
220
0.0
230
1.0
 70
    11
 71
     3
 72
    20
 73
    16
 74
     0
 42
0.0000000001
 43
0.0000000001
 12
1.0
 22
0.0
 32
0.0
 13
1.0
 23
0.0
 33
0.0
 40
0.0
 40
0.0
 40
0.0
 40
0.0
 40
0.2
 40
0.2
 40
0.2
 40
0.2
 40
0.4
 40
0.4
 40
0.4
 40
0.4
 40
0.6
 40
0.6
 40
0.6
 40
0.6
 40
1.0
 40
1.0
 40
1.0
 40
1.0
 10
48.9684
 20
36.2932
 30
0.0
 10
48.9353
 20
36.2932
 30
0.0
 10
48.9084
 20
36.2663
 30
0.0
 10
48.9084
 20
36.2332
 30
0.0
 10
48.9084
 20
36.2332
 30
0.0
 10
48.9084
 20
36.2001
 30
0.0
 10
48.9353
 20
36.1733
 30
0.0
 10
48.9684
 20
36.1733
 30
0.0
 10
48.9684
 20
36.1733
 30
0.0
 10
49.0015
 20
36.1733
 30
0.0
 10
49.0283
 20
36.2001
 30
0.0
 10
49.0283
 20
36.2332
 30
0.0
 10
49.0283
 20
36.2332
 30
0.0
 10
49.0283
 20
36.2663
 30
0.0
 10
49.0015
 20
36.2932
 30
0.0
 10
48.9684
 20
36.2932
 30
0.0
  0
SPLINE
  5
F4
330
1F
100
AcDbEntity
  8
Plan 1
370
     9
100
AcDbSpline
210
0.0
220
0.0
230
1.0
 70
    11
 71
     3
 72
    20
 73
    16
 74
     0
 42
0.0000000001
 43
0.0000000001
 12
1.0
 22
0.0
 32
0.0
 13
1.0
 23
0.0
 33
0.0
 40
0.0
 40
0.0
 40
0.0
 40
0.0
 40
0.2
 40
0.2
 40
0.2
 40
0.2
 40
0.4
 40
0.4
 40
0.4
 40
0.4
 40
0.6
 40
0.6
 40
0.6
 40
0.6
 40
1.0
 40
1.0
 40
1.0
 40
1.0
 10
56.2446
 20
36.2784
 30
0.0
 10
56.2115
 20
36.2784
 30
0.0
 10
56.1846
 20
36.2515
 30
0.0
 10
56.1846
 20
36.2184
 30
0.0
 10
56.1846
 20
36.2184
 30
0.0
 10
56.1846
 20
36.1853
 30
0.0
 10
56.2115
 20
36.1585
 30
0.0
 10
56.2446
 20
36.1585
 30
0.0
 10
56.2446
 20
36.1585
 30
0.0
 10
56.2777
 20
36.1585
 30
0.0
 10
56.3045
 20
36.1853
 30
0.0
 10
56.3045
 20
36.2184
 30
0.0
 10
56.3045
 20
36.2184
 30
0.0
 10
56.3045
 20
36.2515
 30
0.0
 10
56.2777
 20
36.2784
 30
0.0
 10
56.2446
 20
36.2784
 30
0.0
  0
SPLINE
  5
F5
330
1F
100
AcDbEntity
  8
Plan 1
370
     9
100
AcDbSpline
210
0.0
220
0.0
230
1.0
 70
    11
 71
     3
 72
    20
 73
    16
 74
     0
 42
0.0000000001
 43
0.0000000001
 12
1.0
 22
0.0
 32
0.0
 13
1.0
 23
0.0
 33
0.0
 40
0.0
 40
0.0
 40
0.0
 40
0.0
 40
0.2
 40
0.2
 40
0.2
 40
0.2
 40
0.4
 40
0.4
 40
0.4
 40
0.4
 40
0.6
 40
0.6
 40
0.6
 40
0.6
 40
1.0
 40
1.0
 40
1.0
 40
1.0
 10
48.9156
 20
29.0495
 30
0.0
 10
48.8825
 20
29.0495
 30
0.0
 10
48.8556
 20
29.0226
 30
0.0
 10
48.8556
 20
28.9895
 30
0.0
 10
48.8556
 20
28.9895
 30
0.0
 10
48.8556
 20
28.9564
 30
0.0
 10
48.8825
 20
28.9296
 30
0.0
 10
48.9156
 20
28.9296
 30
0.0
 10
48.9156
 20
28.9296
 30
0.0
 10
48.9487
 20
28.9296
 30
0.0
 10
48.9755
 20
28.9564
 30
0.0
 10
48.9755
 20
28.9895
 30
0.0
 10
48.9755
 20
28.9895
 30
0.0
 10
48.9755
 20
29.0226
 30
0.0
 10
48.9487
 20
29.0495
 30
0.0
 10
48.9156
 20
29.0495
 30
0.0
  0
SPLINE
  5
F6
330
1F
100
AcDbEntity
  8
Plan 1
370
     9
100
AcDbSpline
210
0.0
220
0.0
230
1.0
 70
    11
 71
     3
 72
    20
 73
    16
 74
     0
 42
0.0000000001
 43
0.0000000001
 12
1.0
 22
0.0
 32
0.0
 13
1.0
 23
0.0
 33
0.0
 40
0.0
 40
0.0
 40
0.0
 40
0.0
 40
0.2
 40
0.2
 40
0.2
 40
0.2
 40
0.4
 40
0.4
 40
0.4
 40
0.4
 40
0.6
 40
0.6
 40
0.6
 40
0.6
 40
1.0
 40
1.0
 40
1.0
 40
1.0
 10
56.1915
 20
29.0494
 30
0.0
 10
56.1584
 20
29.0494
 30
0.0
 10
56.1315
 20
29.0225
 30
0.0
 10
56.1315
 20
28.9894
 30
0.0
 10
56.1315
 20
28.9894
 30
0.0
 10
56.1315
 20
28.9563
 30
0.0
 10
56.1584
 20
28.9295
 30
0.0
 10
56.1915
 20
28.9295
 30
0.0
 10
56.1915
 20
28.9295
 30
0.0
 10
56.2246
 20
28.9295
 30
0.0
 10
56.2514
 20
28.9563
 30
0.0
 10
56.2514
 20
28.9894
 30
0.0
 10
56.2514
 20
28.9894
 30
0.0
 10
56.2514
 20
29.0225
 30
0.0
 10
56.2246
 20
29.0494
 30
0.0
 10
56.1915
 20
29.0494
 30
0.0
  0
SPLINE
  5
F7
330
1F
100
AcDbEntity
  8
Plan 1
370
     9
100
AcDbSpline
210
0.0
220
0.0
230
1.0
 70
    11
 71
     3
 72
    20
 73
    16
 74
     0
 42
0.0000000001
 43
0.0000000001
 12
1.0
 22
0.0
 32
0.0
 13
1.0
 23
0.0
 33
0.0
 40
0.0
 40
0.0
 40
0.0
 40
0.0
 40
0.2
 40
0.2
 40
0.2
 40
0.2
 40
0.4
 40
0.4
 40
0.4
 40
0.4
 40
0.6
 40
0.6
 40
0.6
 40
0.6
 40
1.0
 40
1.0
 40
1.0
 40
1.0
 10
62.4488
 20
36.5169
 30
0.0
 10
60.3101
 20
36.5169
 30
0.0
 10
58.5764
 20
34.7832
 30
0.0
 10
58.5764
 20
32.6445
 30
0.0
 10
58.5764
 20
32.6445
 30
0.0
 10
58.5764
 20
30.5059
 30
0.0
 10
60.3101
 20
28.7721
 30
0.0
 10
62.4488
 20
28.7721
 30
0.0
 10
62.4488
 20
28.7721
 30
0.0
 10
64.5875
 20
28.7721
 30
0.0
 10
66.3212
 20
30.5058
 30
0.0
 10
66.3212
 20
32.6445
 30
0.0
 10
66.3212
 20
32.6445
 30
0.0
 10
66.3212
 20
34.7832
 30
0.0
 10
64.5875
 20
36.5169
 30
0.0
 10
62.4488
 20
36.5169
 30
0.0
  0
SPLINE
  5
F8
330
1F
100
AcDbEntity
  8
Plan 1
370
     9
100
AcDbSpline
210
0.0
220
0.0
230
1.0
 70
     8
 71
     3
 72
    12
 73
     8
 74
     0
 42
0.0000000001
 43
0.0000000001
 12
1.0
 22
0.0
 32
0.0
 13
1.0
 23
0.0
 33
0.0
 40
0.0
 40
0.0
 40
0.0
 40
0.0
 40
0.3333333333333333
 40
0.3333333333333333
 40
0.3333333333333333
 40
0.3333333333333333
 40
1.0
 40
1.0
 40
1.0
 40
1.0
 10
66.4946
 20
27.8487
 30
0.0
 10
66.6935
 20
27.8487
 30
0.0
 10
66.8843
 20
27.9278
 30
0.0
 10
67.0249
 20
28.0684
 30
0.0
 10
67.0249
 20
28.0684
 30
0.0
 10
67.1656
 20
28.2091
 30
0.0
 10
67.2446
 20
28.3998
 30
0.0
 10
67.2446
 20
28.5987
 30
0.0
  0
SPLINE
  5
F9
330
1F
100
AcDbEntity
  8
Plan 1
370
     9
100
AcDbSpline
210
0.0
220
0.0
230
1.0
 70
    24
 71
     3
 72
     8
 73
     4
 74
     0
 42
0.0000000001
 43
0.0000000001
 12
1.0
 22
0.0
 32
0.0
 13
1.0
 23
0.0
 33
0.0
 40
0.0
 40
0.0
 40
0.0
 40
0.0
 40
1.0
 40
1.0
 40
1.0
 40
1.0
 10
58.403
 20
27.8487
 30
0.0
 10
58.403
 20
27.8487
 30
0.0
 10
66.4946
 20
27.8487
 30
0.0
 10
66.4946
 20
27.8487
 30
0.0
  0
SPLINE
  5
FA
330
1F
100
AcDbEntity
  8
Plan 1
370
     9
100
AcDbSpline
210
0.0
220
0.0
230
1.0
 70
     8
 71
     3
 72
    12
 73
     8
 74
     0
 42
0.0000000001
 43
0.0000000001
 12
1.0
 22
0.0
 32
0.0
 13
1.0
 23
0.0
 33
0.0
 40
0.0
 40
0.0
 40
0.0
 40
0.0
 40
0.3333333333333333
 40
0.3333333333333333
 40
0.3333333333333333
 40
0.3333333333333333
 40
1.0
 40
1.0
 40
1.0
 40
1.0
 10
57.653
 20
28.5987
 30
0.0
 10
57.653
 20
28.3998
 30
0.0
 10
57.732
 20
28.2091
 30
0.0
 10
57.8727
 20
28.0684
 30
0.0
 10
57.8727
 20
28.0684
 30
0.0
 10
58.0133
 20
27.9278
 30
0.0
 10
58.2041
 20
27.8487
 30
0.0
 10
58.403
 20
27.8487
 30
0.0
  0
SPLINE
  5
FB
330
1F
100
AcDbEntity
  8
Plan 1
370
     9
100
AcDbSpline
210
0.0
220
0.0
230
1.0
 70
    24
 71
     3
 72
     8
 73
     4
 74
     0
 42
0.0000000001
 43
0.0000000001
 12
1.0
 22
0.0
 32
0.0
 13
1.0
 23
0.0
 33
0.0
 40
0.0
 40
0.0
 40
0.0
 40
0.0
 40
1.0
 40
1.0
 40
1.0
 40
1.0
 10
57.653
 20
36.6903
 30
0.0
 10
57.653
 20
36.6903
 30
0.0
 10
57.653
 20
28.5987
 30
0.0
 10
57.653
 20
28.5987
 30
0.0
  0
SPLINE
  5
FC
330
1F
100
AcDbEntity
  8
Plan 1
370
     9
100
AcDbSpline
210
0.0
220
0.0
230
1.0
 70
     8
 71
     3
 72
    12
 73
     8
 74
     0
 42
0.0000000001
 43
0.0000000001
 12
1.0
 22
0.0
 32
0.0
 13
1.0
 23
0.0
 33
0.0
 40
0.0
 40
0.0
 40
0.0
 40
0.0
 40
0.3333333333333333
 40
0.3333333333333333
 40
0.3333333333333333
 40
0.3333333333333333
 40
1.0
 40
1.0
 40
1.0
 40
1.0
 10
58.403
 20
37.4403
 30
0.0
 10
58.2041
 20
37.4403
 30
0.0
 10
58.0133
 20
37.3613
 30
0.0
 10
57.8727
 20
37.2206
 30
0.0
 10
57.8727
 20
37.2206
 30
0.0
 10
57.732
 20
37.08
 30
0.0
 10
57.653
 20
36.8892
 30
0.0
 10
57.653
 20
36.6903
 30
0.0
  0
SPLINE
  5
FD
330
1F
100
AcDbEntity
  8
Plan 1
370
     9
100
AcDbSpline
210
0.0
220
0.0
230
1.0
 70
    24
 71
     3
 72
     8
 73
     4
 74
     0
 42
0.0000000001
 43
0.0000000001
 12
1.0
 22
0.0
 32
0.0
 13
1.0
 23
0.0
 33
0.0
 40
0.0
 40
0.0
 40
0.0
 40
0.0
 40
1.0
 40
1.0
 40
1.0
 40
1.0
 10
66.4946
 20
37.4403
 30
0.0
 10
66.4946
 20
37.4403
 30
0.0
 10
58.403
 20
37.4403
 30
0.0
 10
58.403
 20
37.4403
 30
0.0
  0
SPLINE
  5
FE
330
1F
100
AcDbEntity
  8
Plan 1
370
     9
100
AcDbSpline
210
0.0
220
0.0
230
1.0
 70
     8
 71
     3
 72
     8
 73
     4
 74
     0
 42
0.0000000001
 43
0.0000000001
 12
1.0
 22
0.0
 32
0.0
 13
1.0
 23
0.0
 33
0.0
 40
0.0
 40
0.0
 40
0.0
 40
0.0
 40
1.0
 40
1.0
 40
1.0
 40
1.0
 10
67.2446
 20
36.6903
 30
0.0
 10
67.2446
 20
37.1045
 30
0.0
 10
66.9088
 20
37.4403
 30
0.0
 10
66.4946
 20
37.4403
 30
0.0
  0
SPLINE
  5
FF
330
1F
100
AcDbEntity
  8
Plan 1
370
     9
100
AcDbSpline
210
0.0
220
0.0
230
1.0
 70
    24
 71
     3
 72
     8
 73
     4
 74
     0
 42
0.0000000001
 43
0.0000000001
 12
1.0
 22
0.0
 32
0.0
 13
1.0
 23
0.0
 33
0.0
 40
0.0
 40
0.0
 40
0.0
 40
0.0
 40
1.0
 40
1.0
 40
1.0
 40
1.0
 10
67.2446
 20
28.5987
 30
0.0
 10
67.2446
 20
28.5987
 30
0.0
 10
67.2446
 20
36.6903
 30
0.0
 10
67.2446
 20
36.6903
 30
0.0
  0
SPLINE
  5
100
330
1F
100
AcDbEntity
  8
Plan 1
370
     9
100
AcDbSpline
210
0.0
220
0.0
230
1.0
 70
    11
 71
     3
 72
    20
 73
    16
 74
     0
 42
0.0000000001
 43
0.0000000001
 12
1.0
 22
0.0
 32
0.0
 13
1.0
 23
0.0
 33
0.0
 40
0.0
 40
0.0
 40
0.0
 40
0.0
 40
0.2
 40
0.2
 40
0.2
 40
0.2
 40
0.4
 40
0.4
 40
0.4
 40
0.4
 40
0.6
 40
0.6
 40
0.6
 40
0.6
 40
1.0
 40
1.0
 40
1.0
 40
1.0
 10
58.4935
 20
36.6695
 30
0.0
 10
58.4604
 20
36.6695
 30
0.0
 10
58.4335
 20
36.6426
 30
0.0
 10
58.4335
 20
36.6095
 30
0.0
 10
58.4335
 20
36.6095
 30
0.0
 10
58.4335
 20
36.5764
 30
0.0
 10
58.4604
 20
36.5496
 30
0.0
 10
58.4935
 20
36.5496
 30
0.0
 10
58.4935
 20
36.5496
 30
0.0
 10
58.5266
 20
36.5496
 30
0.0
 10
58.5534
 20
36.5764
 30
0.0
 10
58.5534
 20
36.6095
 30
0.0
 10
58.5534
 20
36.6095
 30
0.0
 10
58.5534
 20
36.6426
 30
0.0
 10
58.5266
 20
36.6695
 30
0.0
 10
58.4935
 20
36.6695
 30
0.0
  0
SPLINE
  5
101
330
1F
100
AcDbEntity
  8
Plan 1
370
     9
100
AcDbSpline
210
0.0
220
0.0
230
1.0
 70
    11
 71
     3
 72
    20
 73
    16
 74
     0
 42
0.0000000001
 43
0.0000000001
 12
1.0
 22
0.0
 32
0.0
 13
1.0
 23
0.0
 33
0.0
 40
0.0
 40
0.0
 40
0.0
 40
0.0
 40
0.2
 40
0.2
 40
0.2
 40
0.2
 40
0.4
 40
0.4
 40
0.4
 40
0.4
 40
0.6
 40
0.6
 40
0.6
 40
0.6
 40
1.0
 40
1.0
 40
1.0
 40
1.0
 10
66.5104
 20
36.6431
 30
0.0
 10
66.4773
 20
36.6431
 30
0.0
 10
66.4504
 20
36.6162
 30
0.0
 10
66.4504
 20
36.5831
 30
0.0
 10
66.4504
 20
36.5831
 30
0.0
 10
66.4504
 20
36.55
 30
0.0
 10
66.4773
 20
36.5232
 30
0.0
 10
66.5104
 20
36.5232
 30
0.0
 10
66.5104
 20
36.5232
 30
0.0
 10
66.5435
 20
36.5232
 30
0.0
 10
66.5703
 20
36.55
 30
0.0
 10
66.5703
 20
36.5831
 30
0.0
 10
66.5703
 20
36.5831
 30
0.0
 10
66.5703
 20
36.6162
 30
0.0
 10
66.5435
 20
36.6431
 30
0.0
 10
66.5104
 20
36.6431
 30
0.0
  0
SPLINE
  5
102
330
1F
100
AcDbEntity
  8
Plan 1
370
     9
100
AcDbSpline
210
0.0
220
0.0
230
1.0
 70
    11
 71
     3
 72
    20
 73
    16
 74
     0
 42
0.0000000001
 43
0.0000000001
 12
1.0
 22
0.0
 32
0.0
 13
1.0
 23
0.0
 33
0.0
 40
0.0
 40
0.0
 40
0.0
 40
0.0
 40
0.2
 40
0.2
 40
0.2
 40
0.2
 40
0.4
 40
0.4
 40
0.4
 40
0.4
 40
0.6
 40
0.6
 40
0.6
 40
0.6
 40
1.0
 40
1.0
 40
1.0
 40
1.0
 10
58.4141
 20
28.6525
 30
0.0
 10
58.381
 20
28.6525
 30
0.0
 10
58.3541
 20
28.6256
 30
0.0
 10
58.3541
 20
28.5925
 30
0.0
 10
58.3541
 20
28.5925
 30
0.0
 10
58.3541
 20
28.5594
 30
0.0
 10
58.381
 20
28.5326
 30
0.0
 10
58.4141
 20
28.5326
 30
0.0
 10
58.4141
 20
28.5326
 30
0.0
 10
58.4472
 20
28.5326
 30
0.0
 10
58.474
 20
28.5594
 30
0.0
 10
58.474
 20
28.5925
 30
0.0
 10
58.474
 20
28.5925
 30
0.0
 10
58.474
 20
28.6256
 30
0.0
 10
58.4472
 20
28.6525
 30
0.0
 10
58.4141
 20
28.6525
 30
0.0
  0
SPLINE
  5
103
330
1F
100
AcDbEntity
  8
Plan 1
370
     9
100
AcDbSpline
210
0.0
220
0.0
230
1.0
 70
    11
 71
     3
 72
    20
 73
    16
 74
     0
 42
0.0000000001
 43
0.0000000001
 12
1.0
 22
0.0
 32
0.0
 13
1.0
 23
0.0
 33
0.0
 40
0.0
 40
0.0
 40
0.0
 40
0.0
 40
0.2
 40
0.2
 40
0.2
 40
0.2
 40
0.4
 40
0.4
 40
0.4
 40
0.4
 40
0.6
 40
0.6
 40
0.6
 40
0.6
 40
1.0
 40
1.0
 40
1.0
 40
1.0
 10
66.5104
 20
28.6261
 30
0.0
 10
66.4773
 20
28.6261
 30
0.0
 10
66.4504
 20
28.5992
 30
0.0
 10
66.4504
 20
28.5661
 30
0.0
 10
66.4504
 20
28.5661
 30
0.0
 10
66.4504
 20
28.533
 30
0.0
 10
66.4773
 20
28.5062
 30
0.0
 10
66.5104
 20
28.5062
 30
0.0
 10
66.5104
 20
28.5062
 30
0.0
 10
66.5435
 20
28.5062
 30
0.0
 10
66.5703
 20
28.533
 30
0.0
 10
66.5703
 20
28.5661
 30
0.0
 10
66.5703
 20
28.5661
 30
0.0
 10
66.5703
 20
28.5992
 30
0.0
 10
66.5435
 20
28.6261
 30
0.0
 10
66.5104
 20
28.6261
 30
0.0
  0
SPLINE
  5
104
330
1F
100
AcDbEntity
  8
Plan 1
 62
   250
370
     5
100
AcDbSpline
210
0.0
220
0.0
230
1.0
 70
    11
 71
     3
 72
    24
 73
    20
 74
     0
 42
0.0000000001
 43
0.0000000001
 12
1.0
 22
0.0
 32
0.0
 13
1.0
 23
0.0
 33
0.0
 40
0.0
 40
0.0
 40
0.0
 40
0.0
 40
0.1666666666666667
 40
0.1666666666666667
 40
0.1666666666666667
 40
0.1666666666666667
 40
0.3333333333333333
 40
0.3333333333333333
 40
0.3333333333333333
 40
0.3333333333333333
 40
0.5
 40
0.5
 40
0.5
 40
0.5
 40
0.6666666666666666
 40
0.6666666666666666
 40
0.6666666666666666
 40
0.6666666666666666
 40
1.0
 40
1.0
 40
1.0
 40
1.0
 10
51.9824
 20
18.0794
 30
0.0
 10
51.9824
 20
18.0794
 30
0.0
 10
51.903
 20
17.0475
 30
0.0
 10
51.903
 20
17.0475
 30
0.0
 10
51.903
 20
17.0475
 30
0.0
 10
51.903
 20
17.0475
 30
0.0
 10
51.7178
 20
14.9573
 30
0.0
 10
51.7178
 20
14.9573
 30
0.0
 10
51.7178
 20
14.9573
 30
0.0
 10
51.7178
 20
14.9573
 30
0.0
 10
51.5855
 20
13.264
 30
0.0
 10
51.5855
 20
13.264
 30
0.0
 10
51.5855
 20
13.264
 30
0.0
 10
51.5855
 20
13.264
 30
0.0
 10
55.4485
 20
13.264
 30
0.0
 10
55.4485
 20
13.264
 30
0.0
 10
55.4485
 20
13.264
 30
0.0
 10
55.4485
 20
13.264
 30
0.0
 10
51.9824
 20
18.0794
 30
0.0
 10
51.9824
 20
18.0794
 30
0.0
  0
ELLIPSE
  5
105
330
1F
100
AcDbEntity
  8
Plan 1
 62
   250
370
     5
100
AcDbEllipse
 10
53.1598
 20
15.3278
 30
0.0
 11
0.0
 21
0.1587
 31
0.0
210
0.0
220
0.0
230
1.0
 40
0.9168241965973534
 41
0.0
 42
6.283185307179586
  0
SPLINE
  5
106
330
1F
100
AcDbEntity
  8
Plan 1
 62
   250
370
     5
100
AcDbSpline
210
0.0
220
0.0
230
1.0
 70
    11
 71
     3
 72
    24
 73
    20
 74
     0
 42
0.0000000001
 43
0.0000000001
 12
1.0
 22
0.0
 32
0.0
 13
1.0
 23
0.0
 33
0.0
 40
0.0
 40
0.0
 40
0.0
 40
0.0
 40
0.1666666666666667
 40
0.1666666666666667
 40
0.1666666666666667
 40
0.1666666666666667
 40
0.3333333333333333
 40
0.3333333333333333
 40
0.3333333333333333
 40
0.3333333333333333
 40
0.5
 40
0.5
 40
0.5
 40
0.5
 40
0.6666666666666666
 40
0.6666666666666666
 40
0.6666666666666666
 40
0.6666666666666666
 40
1.0
 40
1.0
 40
1.0
 40
1.0
 10
47.4845
 20
19.323
 30
0.0
 10
47.4845
 20
19.323
 30
0.0
 10
47.4051
 20
18.2911
 30
0.0
 10
47.4051
 20
18.2911
 30
0.0
 10
47.4051
 20
18.2911
 30
0.0
 10
47.4051
 20
18.2911
 30
0.0
 10
47.2199
 20
16.2009
 30
0.0
 10
47.2199
 20
16.2009
 30
0.0
 10
47.2199
 20
16.2009
 30
0.0
 10
47.2199
 20
16.2009
 30
0.0
 10
47.0876
 20
14.5076
 30
0.0
 10
47.0876
 20
14.5076
 30
0.0
 10
47.0876
 20
14.5076
 30
0.0
 10
47.0876
 20
14.5076
 30
0.0
 10
50.9506
 20
14.5076
 30
0.0
 10
50.9506
 20
14.5076
 30
0.0
 10
50.9506
 20
14.5076
 30
0.0
 10
50.9506
 20
14.5076
 30
0.0
 10
47.4845
 20
19.323
 30
0.0
 10
47.4845
 20
19.323
 30
0.0
  0
ELLIPSE
  5
107
330
1F
100
AcDbEntity
  8
Plan 1
 62
   250
370
     5
100
AcDbEllipse
 10
48.6619
 20
16.5714
 30
0.0
 11
0.0
 21
0.1587
 31
0.0
210
0.0
220
0.0
230
1.0
 40
0.9168241965973534
 41
0.0
 42
6.283185307179586
  0
SPLINE
  5
108
330
1F
100
AcDbEntity
  8
Plan 1
370
     9
100
AcDbSpline
210
0.0
220
0.0
230
1.0
 70
    24
 71
     3
 72
     8
 73
     4
 74
     0
 42
0.0000000001
 43
0.0000000001
 12
1.0
 22
0.0
 32
0.0
 13
1.0
 23
0.0
 33
0.0
 40
0.0
 40
0.0
 40
0.0
 40
0.0
 40
1.0
 40
1.0
 40
1.0
 40
1.0
 10
0.4775
 20
12.9651
 30
0.0
 10
0.4775
 20
12.9651
 30
0.0
 10
0.4795
 20
12.9635
 30
0.0
 10
0.4795
 20
12.9635
 30
0.0
  0
SPLINE
  5
109
330
1F
100
AcDbEntity
  8
Plan 1
370
     9
100
AcDbSpline
210
0.0
220
0.0
230
1.0
 70
    11
 71
     3
 72
    20
 73
    16
 74
     0
 42
0.0000000001
 43
0.0000000001
 12
1.0
 22
0.0
 32
0.0
 13
1.0
 23
0.0
 33
0.0
 40
0.0
 40
0.0
 40
0.0
 40
0.0
 40
0.2
 40
0.2
 40
0.2
 40
0.2
 40
0.4
 40
0.4
 40
0.4
 40
0.4
 40
0.6
 40
0.6
 40
0.6
 40
0.6
 40
1.0
 40
1.0
 40
1.0
 40
1.0
 10
23.4368
 20
33.9197
 30
0.0
 10
23.4368
 20
35.9687
 30
0.0
 10
21.7758
 20
37.6296
 30
0.0
 10
19.727
 20
37.6296
 30
0.0
 10
19.727
 20
37.6296
 30
0.0
 10
17.6781
 20
37.6296
 30
0.0
 10
16.0171
 20
35.9687
 30
0.0
 10
16.0171
 20
33.9197
 30
0.0
 10
16.0171
 20
33.9197
 30
0.0
 10
16.0171
 20
31.8708
 30
0.0
 10
17.678
 20
30.2099
 30
0.0
 10
19.727
 20
30.2099
 30
0.0
 10
19.727
 20
30.2099
 30
0.0
 10
21.7758
 20
30.2099
 30
0.0
 10
23.4367
 20
31.8708
 30
0.0
 10
23.4368
 20
33.9197
 30
0.0
  0
SPLINE
  5
10A
330
1F
100
AcDbEntity
  8
Plan 1
370
     9
100
AcDbSpline
210
0.0
220
0.0
230
1.0
 70
    11
 71
     3
 72
    20
 73
    16
 74
     0
 42
0.0000000001
 43
0.0000000001
 12
1.0
 22
0.0
 32
0.0
 13
1.0
 23
0.0
 33
0.0
 40
0.0
 40
0.0
 40
0.0
 40
0.0
 40
0.2
 40
0.2
 40
0.2
 40
0.2
 40
0.4
 40
0.4
 40
0.4
 40
0.4
 40
0.6
 40
0.6
 40
0.6
 40
0.6
 40
1.0
 40
1.0
 40
1.0
 40
1.0
 10
11.4613
 20
20.5917
 30
0.0
 10
11.4613
 20
22.4545
 30
0.0
 10
9.9512
 20
23.9646
 30
0.0
 10
8.0884
 20
23.9646
 30
0.0
 10
8.0884
 20
23.9646
 30
0.0
 10
6.2257
 20
23.9646
 30
0.0
 10
4.7156
 20
22.4545
 30
0.0
 10
4.7156
 20
20.5917
 30
0.0
 10
4.7156
 20
20.5917
 30
0.0
 10
4.7156
 20
18.729
 30
0.0
 10
6.2257
 20
17.2189
 30
0.0
 10
8.0884
 20
17.2189
 30
0.0
 10
8.0884
 20
17.2189
 30
0.0
 10
9.9512
 20
17.2189
 30
0.0
 10
11.4613
 20
18.7289
 30
0.0
 10
11.4613
 20
20.5917
 30
0.0
  0
SPLINE
  5
10B
330
1F
100
AcDbEntity
  8
Plan 1
370
     9
100
AcDbSpline
210
0.0
220
0.0
230
1.0
 70
    11
 71
     3
 72
    20
 73
    16
 74
     0
 42
0.0000000001
 43
0.0000000001
 12
1.0
 22
0.0
 32
0.0
 13
1.0
 23
0.0
 33
0.0
 40
0.0
 40
0.0
 40
0.0
 40
0.0
 40
0.2
 40
0.2
 40
0.2
 40
0.2
 40
0.4
 40
0.4
 40
0.4
 40
0.4
 40
0.6
 40
0.6
 40
0.6
 40
0.6
 40
1.0
 40
1.0
 40
1.0
 40
1.0
 10
-0.4816
 20
22.6402
 30
0.0
 10
-0.4816
 20
24.7337
 30
0.0
 10
-2.1787
 20
26.4308
 30
0.0
 10
-4.2722
 20
26.4308
 30
0.0
 10
-4.2722
 20
26.4308
 30
0.0
 10
-6.3656
 20
26.4308
 30
0.0
 10
-8.0627
 20
24.7337
 30
0.0
 10
-8.0628
 20
22.6402
 30
0.0
 10
-8.0628
 20
22.6402
 30
0.0
 10
-8.0628
 20
20.5468
 30
0.0
 10
-6.3657
 20
18.8497
 30
0.0
 10
-4.2722
 20
18.8497
 30
0.0
 10
-4.2722
 20
18.8497
 30
0.0
 10
-2.1787
 20
18.8496
 30
0.0
 10
-0.4816
 20
20.5468
 30
0.0
 10
-0.4816
 20
22.6402
 30
0.0
  0
SPLINE
  5
10C
330
1F
100
AcDbEntity
  8
Plan 1
370
     9
100
AcDbSpline
210
0.0
220
0.0
230
1.0
 70
     8
 71
     3
 72
    20
 73
    16
 74
     0
 42
0.0000000001
 43
0.0000000001
 12
1.0
 22
0.0
 32
0.0
 13
1.0
 23
0.0
 33
0.0
 40
0.0
 40
0.0
 40
0.0
 40
0.0
 40
0.2
 40
0.2
 40
0.2
 40
0.2
 40
0.4
 40
0.4
 40
0.4
 40
0.4
 40
0.6
 40
0.6
 40
0.6
 40
0.6
 40
1.0
 40
1.0
 40
1.0
 40
1.0
 10
23.4669
 20
22.3641
 30
0.0
 10
23.4669
 20
24.4397
 30
0.0
 10
21.7843
 20
26.1224
 30
0.0
 10
19.7087
 20
26.1224
 30
0.0
 10
19.7087
 20
26.1224
 30
0.0
 10
17.6331
 20
26.1224
 30
0.0
 10
15.9505
 20
24.4397
 30
0.0
 10
15.9505
 20
22.3641
 30
0.0
 10
15.9505
 20
22.3641
 30
0.0
 10
15.9504
 20
20.2884
 30
0.0
 10
17.633
 20
18.6058
 30
0.0
 10
19.7087
 20
18.6058
 30
0.0
 10
19.7087
 20
18.6058
 30
0.0
 10
21.7843
 20
18.6058
 30
0.0
 10
23.4669
 20
20.2884
 30
0.0
 10
23.4669
 20
22.364
 30
0.0
  0
SPLINE
  5
10D
330
1F
100
AcDbEntity
  8
Plan 1
370
     9
100
AcDbSpline
210
0.0
220
0.0
230
1.0
 70
     8
 71
     3
 72
    20
 73
    16
 74
     0
 42
0.0000000001
 43
0.0000000001
 12
1.0
 22
0.0
 32
0.0
 13
1.0
 23
0.0
 33
0.0
 40
0.0
 40
0.0
 40
0.0
 40
0.0
 40
0.2
 40
0.2
 40
0.2
 40
0.2
 40
0.4
 40
0.4
 40
0.4
 40
0.4
 40
0.6
 40
0.6
 40
0.6
 40
0.6
 40
1.0
 40
1.0
 40
1.0
 40
1.0
 10
12.895
 20
34.1087
 30
0.0
 10
12.895
 20
36.7783
 30
0.0
 10
10.7308
 20
38.9426
 30
0.0
 10
8.0611
 20
38.9426
 30
0.0
 10
8.0611
 20
38.9426
 30
0.0
 10
5.3914
 20
38.9426
 30
0.0
 10
3.2272
 20
36.7783
 30
0.0
 10
3.2272
 20
34.1087
 30
0.0
 10
3.2272
 20
34.1087
 30
0.0
 10
3.2272
 20
31.439
 30
0.0
 10
5.3914
 20
29.2748
 30
0.0
 10
8.0611
 20
29.2748
 30
0.0
 10
8.0611
 20
29.2748
 30
0.0
 10
10.7308
 20
29.2747
 30
0.0
 10
12.895
 20
31.4389
 30
0.0
 10
12.895
 20
34.1086
 30
0.0
  0
SPLINE
  5
10E
330
1F
100
AcDbEntity
  8
Plan 1
370
     9
100
AcDbSpline
210
0.0
220
0.0
230
1.0
 70
     8
 71
     3
 72
    20
 73
    16
 74
     0
 42
0.0000000001
 43
0.0000000001
 12
1.0
 22
0.0
 32
0.0
 13
1.0
 23
0.0
 33
0.0
 40
0.0
 40
0.0
 40
0.0
 40
0.0
 40
0.2
 40
0.2
 40
0.2
 40
0.2
 40
0.4
 40
0.4
 40
0.4
 40
0.4
 40
0.6
 40
0.6
 40
0.6
 40
0.6
 40
1.0
 40
1.0
 40
1.0
 40
1.0
 10
-0.5869
 20
34.3296
 30
0.0
 10
-0.5869
 20
36.5878
 30
0.0
 10
-2.4176
 20
38.4185
 30
0.0
 10
-4.6758
 20
38.4185
 30
0.0
 10
-4.6758
 20
38.4185
 30
0.0
 10
-6.9341
 20
38.4185
 30
0.0
 10
-8.7649
 20
36.5878
 30
0.0
 10
-8.7649
 20
34.3296
 30
0.0
 10
-8.7649
 20
34.3296
 30
0.0
 10
-8.7649
 20
32.0713
 30
0.0
 10
-6.9341
 20
30.2406
 30
0.0
 10
-4.6759
 20
30.2406
 30
0.0
 10
-4.6759
 20
30.2406
 30
0.0
 10
-2.4176
 20
30.2406
 30
0.0
 10
-0.5869
 20
32.0713
 30
0.0
 10
-0.5869
 20
34.3295
 30
0.0
  0
SPLINE
  5
10F
330
1F
100
AcDbEntity
  8
Plan 1
370
     9
100
AcDbSpline
210
0.0
220
0.0
230
1.0
 70
     8
 71
     3
 72
     8
 73
     4
 74
     0
 42
0.0000000001
 43
0.0000000001
 12
1.0
 22
0.0
 32
0.0
 13
1.0
 23
0.0
 33
0.0
 40
0.0
 40
0.0
 40
0.0
 40
0.0
 40
1.0
 40
1.0
 40
1.0
 40
1.0
 10
16.9156
 20
11.3241
 30
0.0
 10
17.2846
 20
11.3241
 30
0.0
 10
17.6169
 20
11.5472
 30
0.0
 10
17.7567
 20
11.8885
 30
0.0
  0
SPLINE
  5
110
330
1F
100
AcDbEntity
  8
Plan 1
370
     9
100
AcDbSpline
210
0.0
220
0.0
230
1.0
 70
    24
 71
     3
 72
     8
 73
     4
 74
     0
 42
0.0000000001
 43
0.0000000001
 12
1.0
 22
0.0
 32
0.0
 13
1.0
 23
0.0
 33
0.0
 40
0.0
 40
0.0
 40
0.0
 40
0.0
 40
1.0
 40
1.0
 40
1.0
 40
1.0
 10
16.9156
 20
11.3241
 30
0.0
 10
16.9156
 20
11.3241
 30
0.0
 10
-1.3163
 20
11.3241
 30
0.0
 10
-1.3163
 20
11.3241
 30
0.0
  0
SPLINE
  5
111
330
1F
100
AcDbEntity
  8
Plan 1
370
     9
100
AcDbSpline
210
0.0
220
0.0
230
1.0
 70
    24
 71
     3
 72
     8
 73
     4
 74
     0
 42
0.0000000001
 43
0.0000000001
 12
1.0
 22
0.0
 32
0.0
 13
1.0
 23
0.0
 33
0.0
 40
0.0
 40
0.0
 40
0.0
 40
0.0
 40
1.0
 40
1.0
 40
1.0
 40
1.0
 10
17.8262
 20
40.4685
 30
0.0
 10
17.8262
 20
40.4685
 30
0.0
 10
21.7132
 20
40.4685
 30
0.0
 10
21.7132
 20
40.4685
 30
0.0
  0
SPLINE
  5
112
330
1F
100
AcDbEntity
  8
Plan 1
370
     9
100
AcDbSpline
210
0.0
220
0.0
230
1.0
 70
    24
 71
     3
 72
     8
 73
     4
 74
     0
 42
0.0000000001
 43
0.0000000001
 12
1.0
 22
0.0
 32
0.0
 13
1.0
 23
0.0
 33
0.0
 40
0.0
 40
0.0
 40
0.0
 40
0.0
 40
1.0
 40
1.0
 40
1.0
 40
1.0
 10
21.7132
 20
40.4685
 30
0.0
 10
21.7132
 20
40.4685
 30
0.0
 10
23.2575
 20
40.4685
 30
0.0
 10
23.2575
 20
40.4685
 30
0.0
  0
SPLINE
  5
113
330
1F
100
AcDbEntity
  8
Plan 1
370
     9
100
AcDbSpline
210
0.0
220
0.0
230
1.0
 70
    24
 71
     3
 72
     8
 73
     4
 74
     0
 42
0.0000000001
 43
0.0000000001
 12
1.0
 22
0.0
 32
0.0
 13
1.0
 23
0.0
 33
0.0
 40
0.0
 40
0.0
 40
0.0
 40
0.0
 40
1.0
 40
1.0
 40
1.0
 40
1.0
 10
23.2575
 20
40.4685
 30
0.0
 10
23.2575
 20
40.4685
 30
0.0
 10
25.2548
 20
40.4685
 30
0.0
 10
25.2548
 20
40.4685
 30
0.0
  0
SPLINE
  5
114
330
1F
100
AcDbEntity
  8
Plan 1
370
     9
100
AcDbSpline
210
0.0
220
0.0
230
1.0
 70
     8
 71
     3
 72
    12
 73
     8
 74
     0
 42
0.0000000001
 43
0.0000000001
 12
1.0
 22
0.0
 32
0.0
 13
1.0
 23
0.0
 33
0.0
 40
0.0
 40
0.0
 40
0.0
 40
0.0
 40
0.3333333333333333
 40
0.3333333333333333
 40
0.3333333333333333
 40
0.3333333333333333
 40
1.0
 40
1.0
 40
1.0
 40
1.0
 10
26.1638
 20
39.5594
 30
0.0
 10
26.1638
 20
39.8005
 30
0.0
 10
26.0681
 20
40.0317
 30
0.0
 10
25.8976
 20
40.2022
 30
0.0
 10
25.8976
 20
40.2022
 30
0.0
 10
25.7271
 20
40.3727
 30
0.0
 10
25.496
 20
40.4685
 30
0.0
 10
25.2548
 20
40.4685
 30
0.0
  0
SPLINE
  5
115
330
1F
100
AcDbEntity
  8
Plan 1
370
     9
100
AcDbSpline
210
0.0
220
0.0
230
1.0
 70
    24
 71
     3
 72
     8
 73
     4
 74
     0
 42
0.0000000001
 43
0.0000000001
 12
1.0
 22
0.0
 32
0.0
 13
1.0
 23
0.0
 33
0.0
 40
0.0
 40
0.0
 40
0.0
 40
0.0
 40
1.0
 40
1.0
 40
1.0
 40
1.0
 10
-11.1344
 20
16.2555
 30
0.0
 10
-11.1344
 20
16.2555
 30
0.0
 10
-11.1344
 20
39.5594
 30
0.0
 10
-11.1344
 20
39.5594
 30
0.0
  0
SPLINE
  5
116
330
1F
100
AcDbEntity
  8
Plan 1
370
     9
100
AcDbSpline
210
0.0
220
0.0
230
1.0
 70
     8
 71
     3
 72
    12
 73
     8
 74
     0
 42
0.0000000001
 43
0.0000000001
 12
1.0
 22
0.0
 32
0.0
 13
1.0
 23
0.0
 33
0.0
 40
0.0
 40
0.0
 40
0.0
 40
0.0
 40
0.3333333333333333
 40
0.3333333333333333
 40
0.3333333333333333
 40
0.3333333333333333
 40
1.0
 40
1.0
 40
1.0
 40
1.0
 10
-10.2254
 20
40.4685
 30
0.0
 10
-10.4665
 20
40.4685
 30
0.0
 10
-10.6977
 20
40.3727
 30
0.0
 10
-10.8682
 20
40.2022
 30
0.0
 10
-10.8682
 20
40.2022
 30
0.0
 10
-11.0387
 20
40.0317
 30
0.0
 10
-11.1344
 20
39.8005
 30
0.0
 10
-11.1344
 20
39.5594
 30
0.0
  0
SPLINE
  5
117
330
1F
100
AcDbEntity
  8
Plan 1
370
     9
100
AcDbSpline
210
0.0
220
0.0
230
1.0
 70
    24
 71
     3
 72
     8
 73
     4
 74
     0
 42
0.0000000001
 43
0.0000000001
 12
1.0
 22
0.0
 32
0.0
 13
1.0
 23
0.0
 33
0.0
 40
0.0
 40
0.0
 40
0.0
 40
0.0
 40
1.0
 40
1.0
 40
1.0
 40
1.0
 10
18.7934
 20
14.4191
 30
0.0
 10
18.7934
 20
14.4191
 30
0.0
 10
17.7567
 20
11.8885
 30
0.0
 10
17.7567
 20
11.8885
 30
0.0
  0
SPLINE
  5
118
330
1F
100
AcDbEntity
  8
Plan 1
370
     9
100
AcDbSpline
210
0.0
220
0.0
230
1.0
 70
     8
 71
     3
 72
     8
 73
     4
 74
     0
 42
0.0000000001
 43
0.0000000001
 12
1.0
 22
0.0
 32
0.0
 13
1.0
 23
0.0
 33
0.0
 40
0.0
 40
0.0
 40
0.0
 40
0.0
 40
1.0
 40
1.0
 40
1.0
 40
1.0
 10
20.0551
 20
15.2657
 30
0.0
 10
19.5017
 20
15.2657
 30
0.0
 10
19.0031
 20
14.9312
 30
0.0
 10
18.7934
 20
14.4191
 30
0.0
  0
SPLINE
  5
119
330
1F
100
AcDbEntity
  8
Plan 1
370
     9
100
AcDbSpline
210
0.0
220
0.0
230
1.0
 70
     8
 71
     3
 72
     8
 73
     4
 74
     0
 42
0.0000000001
 43
0.0000000001
 12
1.0
 22
0.0
 32
0.0
 13
1.0
 23
0.0
 33
0.0
 40
0.0
 40
0.0
 40
0.0
 40
0.0
 40
1.0
 40
1.0
 40
1.0
 40
1.0
 10
-3.2022
 20
14.4909
 30
0.0
 10
-3.4096
 20
15.0077
 30
0.0
 10
-3.9106
 20
15.3465
 30
0.0
 10
-4.4676
 20
15.3465
 30
0.0
  0
SPLINE
  5
11A
330
1F
100
AcDbEntity
  8
Plan 1
370
     9
100
AcDbSpline
210
0.0
220
0.0
230
1.0
 70
     8
 71
     3
 72
     8
 73
     4
 74
     0
 42
0.0000000001
 43
0.0000000001
 12
1.0
 22
0.0
 32
0.0
 13
1.0
 23
0.0
 33
0.0
 40
0.0
 40
0.0
 40
0.0
 40
0.0
 40
1.0
 40
1.0
 40
1.0
 40
1.0
 10
-2.1599
 20
11.8945
 30
0.0
 10
-2.0216
 20
11.5499
 30
0.0
 10
-1.6877
 20
11.3241
 30
0.0
 10
-1.3163
 20
11.3241
 30
0.0
  0
SPLINE
  5
11B
330
1F
100
AcDbEntity
  8
Plan 1
370
     9
100
AcDbSpline
210
0.0
220
0.0
230
1.0
 70
    24
 71
     3
 72
     8
 73
     4
 74
     0
 42
0.0000000001
 43
0.0000000001
 12
1.0
 22
0.0
 32
0.0
 13
1.0
 23
0.0
 33
0.0
 40
0.0
 40
0.0
 40
0.0
 40
0.0
 40
1.0
 40
1.0
 40
1.0
 40
1.0
 10
25.2548
 20
15.2657
 30
0.0
 10
25.2548
 20
15.2657
 30
0.0
 10
20.0551
 20
15.2657
 30
0.0
 10
20.0551
 20
15.2657
 30
0.0
  0
SPLINE
  5
11C
330
1F
100
AcDbEntity
  8
Plan 1
370
     9
100
AcDbSpline
210
0.0
220
0.0
230
1.0
 70
    24
 71
     3
 72
     8
 73
     4
 74
     0
 42
0.0000000001
 43
0.0000000001
 12
1.0
 22
0.0
 32
0.0
 13
1.0
 23
0.0
 33
0.0
 40
0.0
 40
0.0
 40
0.0
 40
0.0
 40
1.0
 40
1.0
 40
1.0
 40
1.0
 10
-10.2254
 20
40.4685
 30
0.0
 10
-10.2254
 20
40.4685
 30
0.0
 10
-9.0354
 20
40.4685
 30
0.0
 10
-9.0354
 20
40.4685
 30
0.0
  0
SPLINE
  5
11D
330
1F
100
AcDbEntity
  8
Plan 1
370
     9
100
AcDbSpline
210
0.0
220
0.0
230
1.0
 70
    24
 71
     3
 72
     8
 73
     4
 74
     0
 42
0.0000000001
 43
0.0000000001
 12
1.0
 22
0.0
 32
0.0
 13
1.0
 23
0.0
 33
0.0
 40
0.0
 40
0.0
 40
0.0
 40
0.0
 40
1.0
 40
1.0
 40
1.0
 40
1.0
 10
-9.0354
 20
40.4685
 30
0.0
 10
-9.0354
 20
40.4685
 30
0.0
 10
-7.9552
 20
40.4685
 30
0.0
 10
-7.9552
 20
40.4685
 30
0.0
  0
SPLINE
  5
11E
330
1F
100
AcDbEntity
  8
Plan 1
370
     9
100
AcDbSpline
210
0.0
220
0.0
230
1.0
 70
    24
 71
     3
 72
     8
 73
     4
 74
     0
 42
0.0000000001
 43
0.0000000001
 12
1.0
 22
0.0
 32
0.0
 13
1.0
 23
0.0
 33
0.0
 40
0.0
 40
0.0
 40
0.0
 40
0.0
 40
1.0
 40
1.0
 40
1.0
 40
1.0
 10
-7.9552
 20
40.4685
 30
0.0
 10
-7.9552
 20
40.4685
 30
0.0
 10
-2.1848
 20
40.4685
 30
0.0
 10
-2.1848
 20
40.4685
 30
0.0
  0
SPLINE
  5
11F
330
1F
100
AcDbEntity
  8
Plan 1
370
     9
100
AcDbSpline
210
0.0
220
0.0
230
1.0
 70
     8
 71
     3
 72
    12
 73
     8
 74
     0
 42
0.0000000001
 43
0.0000000001
 12
1.0
 22
0.0
 32
0.0
 13
1.0
 23
0.0
 33
0.0
 40
0.0
 40
0.0
 40
0.0
 40
0.0
 40
0.3333333333333333
 40
0.3333333333333333
 40
0.3333333333333333
 40
0.3333333333333333
 40
1.0
 40
1.0
 40
1.0
 40
1.0
 10
-11.1344
 20
16.2555
 30
0.0
 10
-11.1344
 20
16.0144
 30
0.0
 10
-11.0387
 20
15.7832
 30
0.0
 10
-10.8682
 20
15.6127
 30
0.0
 10
-10.8682
 20
15.6127
 30
0.0
 10
-10.6977
 20
15.4422
 30
0.0
 10
-10.4665
 20
15.3465
 30
0.0
 10
-10.2254
 20
15.3465
 30
0.0
  0
SPLINE
  5
120
330
1F
100
AcDbEntity
  8
Plan 1
370
     9
100
AcDbSpline
210
0.0
220
0.0
230
1.0
 70
    24
 71
     3
 72
     8
 73
     4
 74
     0
 42
0.0000000001
 43
0.0000000001
 12
1.0
 22
0.0
 32
0.0
 13
1.0
 23
0.0
 33
0.0
 40
0.0
 40
0.0
 40
0.0
 40
0.0
 40
1.0
 40
1.0
 40
1.0
 40
1.0
 10
-4.4676
 20
15.3465
 30
0.0
 10
-4.4676
 20
15.3465
 30
0.0
 10
-10.2254
 20
15.3465
 30
0.0
 10
-10.2254
 20
15.3465
 30
0.0
  0
SPLINE
  5
121
330
1F
100
AcDbEntity
  8
Plan 1
370
     9
100
AcDbSpline
210
0.0
220
0.0
230
1.0
 70
     8
 71
     3
 72
     8
 73
     4
 74
     0
 42
0.0000000001
 43
0.0000000001
 12
1.0
 22
0.0
 32
0.0
 13
1.0
 23
0.0
 33
0.0
 40
0.0
 40
0.0
 40
0.0
 40
0.0
 40
1.0
 40
1.0
 40
1.0
 40
1.0
 10
17.8262
 20
40.4685
 30
0.0
 10
11.5065
 20
43.5276
 30
0.0
 10
4.1348
 20
43.5276
 30
0.0
 10
-2.1848
 20
40.4685
 30
0.0
  0
SPLINE
  5
122
330
1F
100
AcDbEntity
  8
Plan 1
370
     9
100
AcDbSpline
210
0.0
220
0.0
230
1.0
 70
     8
 71
     3
 72
     8
 73
     4
 74
     0
 42
0.0000000001
 43
0.0000000001
 12
1.0
 22
0.0
 32
0.0
 13
1.0
 23
0.0
 33
0.0
 40
0.0
 40
0.0
 40
0.0
 40
0.0
 40
1.0
 40
1.0
 40
1.0
 40
1.0
 10
25.2548
 20
15.2657
 30
0.0
 10
25.7569
 20
15.2657
 30
0.0
 10
26.1638
 20
15.6727
 30
0.0
 10
26.1638
 20
16.1748
 30
0.0
  0
SPLINE
  5
123
330
1F
100
AcDbEntity
  8
Plan 1
370
     9
100
AcDbSpline
210
0.0
220
0.0
230
1.0
 70
    24
 71
     3
 72
     8
 73
     4
 74
     0
 42
0.0000000001
 43
0.0000000001
 12
1.0
 22
0.0
 32
0.0
 13
1.0
 23
0.0
 33
0.0
 40
0.0
 40
0.0
 40
0.0
 40
0.0
 40
1.0
 40
1.0
 40
1.0
 40
1.0
 10
26.1638
 20
39.5594
 30
0.0
 10
26.1638
 20
39.5594
 30
0.0
 10
26.1638
 20
16.1748
 30
0.0
 10
26.1638
 20
16.1748
 30
0.0
  0
SPLINE
  5
124
330
1F
100
AcDbEntity
  8
Plan 1
370
     9
100
AcDbSpline
210
0.0
220
0.0
230
1.0
 70
    24
 71
     3
 72
     8
 73
     4
 74
     0
 42
0.0000000001
 43
0.0000000001
 12
1.0
 22
0.0
 32
0.0
 13
1.0
 23
0.0
 33
0.0
 40
0.0
 40
0.0
 40
0.0
 40
0.0
 40
1.0
 40
1.0
 40
1.0
 40
1.0
 10
-2.1599
 20
11.8945
 30
0.0
 10
-2.1599
 20
11.8945
 30
0.0
 10
-3.2022
 20
14.4909
 30
0.0
 10
-3.2022
 20
14.4909
 30
0.0
  0
SPLINE
  5
125
330
1F
100
AcDbEntity
  8
Plan 1
370
     9
100
AcDbSpline
210
0.0
220
0.0
230
1.0
 70
    24
 71
     3
 72
     8
 73
     4
 74
     0
 42
0.0000000001
 43
0.0000000001
 12
1.0
 22
0.0
 32
0.0
 13
1.0
 23
0.0
 33
0.0
 40
0.0
 40
0.0
 40
0.0
 40
0.0
 40
1.0
 40
1.0
 40
1.0
 40
1.0
 10
23.7767
 20
25.8801
 30
0.0
 10
23.7767
 20
25.8801
 30
0.0
 10
23.7835
 20
25.9051
 30
0.0
 10
23.7835
 20
25.9051
 30
0.0
  0
SPLINE
  5
126
330
1F
100
AcDbEntity
  8
Plan 1
370
     9
100
AcDbSpline
210
0.0
220
0.0
230
1.0
 70
    24
 71
     3
 72
     8
 73
     4
 74
     0
 42
0.0000000001
 43
0.0000000001
 12
1.0
 22
0.0
 32
0.0
 13
1.0
 23
0.0
 33
0.0
 40
0.0
 40
0.0
 40
0.0
 40
0.0
 40
1.0
 40
1.0
 40
1.0
 40
1.0
 10
23.6685
 20
18.3155
 30
0.0
 10
23.6685
 20
18.3155
 30
0.0
 10
23.6842
 20
18.3294
 30
0.0
 10
23.6842
 20
18.3294
 30
0.0
  0
SPLINE
  5
127
330
1F
100
AcDbEntity
  8
Plan 1
370
     9
100
AcDbSpline
210
0.0
220
0.0
230
1.0
 70
    24
 71
     3
 72
     8
 73
     4
 74
     0
 42
0.0000000001
 43
0.0000000001
 12
1.0
 22
0.0
 32
0.0
 13
1.0
 23
0.0
 33
0.0
 40
0.0
 40
0.0
 40
0.0
 40
0.0
 40
1.0
 40
1.0
 40
1.0
 40
1.0
 10
15.9176
 20
25.8754
 30
0.0
 10
15.9176
 20
25.8754
 30
0.0
 10
15.9332
 20
25.8893
 30
0.0
 10
15.9332
 20
25.8893
 30
0.0
  0
SPLINE
  5
128
330
1F
100
AcDbEntity
  8
Plan 1
370
     9
100
AcDbSpline
210
0.0
220
0.0
230
1.0
 70
    24
 71
     3
 72
     8
 73
     4
 74
     0
 42
0.0000000001
 43
0.0000000001
 12
1.0
 22
0.0
 32
0.0
 13
1.0
 23
0.0
 33
0.0
 40
0.0
 40
0.0
 40
0.0
 40
0.0
 40
1.0
 40
1.0
 40
1.0
 40
1.0
 10
13.372
 20
29.3125
 30
0.0
 10
13.372
 20
29.3125
 30
0.0
 10
13.3876
 20
29.3264
 30
0.0
 10
13.3876
 20
29.3264
 30
0.0
  0
SPLINE
  5
129
330
1F
100
AcDbEntity
  8
Plan 1
370
     9
100
AcDbSpline
210
0.0
220
0.0
230
1.0
 70
    11
 71
     3
 72
    20
 73
    16
 74
     0
 42
0.0000000001
 43
0.0000000001
 12
1.0
 22
0.0
 32
0.0
 13
1.0
 23
0.0
 33
0.0
 40
0.0
 40
0.0
 40
0.0
 40
0.0
 40
0.2
 40
0.2
 40
0.2
 40
0.2
 40
0.4
 40
0.4
 40
0.4
 40
0.4
 40
0.6
 40
0.6
 40
0.6
 40
0.6
 40
1.0
 40
1.0
 40
1.0
 40
1.0
 10
-0.357
 20
30.1096
 30
0.0
 10
-0.357
 20
30.1427
 30
0.0
 10
-0.3839
 20
30.1696
 30
0.0
 10
-0.417
 20
30.1696
 30
0.0
 10
-0.417
 20
30.1696
 30
0.0
 10
-0.4501
 20
30.1696
 30
0.0
 10
-0.4769
 20
30.1427
 30
0.0
 10
-0.4769
 20
30.1096
 30
0.0
 10
-0.4769
 20
30.1096
 30
0.0
 10
-0.4769
 20
30.0765
 30
0.0
 10
-0.4501
 20
30.0497
 30
0.0
 10
-0.417
 20
30.0497
 30
0.0
 10
-0.417
 20
30.0497
 30
0.0
 10
-0.3839
 20
30.0497
 30
0.0
 10
-0.357
 20
30.0765
 30
0.0
 10
-0.357
 20
30.1096
 30
0.0
  0
SPLINE
  5
12A
330
1F
100
AcDbEntity
  8
Plan 1
370
     9
100
AcDbSpline
210
0.0
220
0.0
230
1.0
 70
    11
 71
     3
 72
    20
 73
    16
 74
     0
 42
0.0000000001
 43
0.0000000001
 12
1.0
 22
0.0
 32
0.0
 13
1.0
 23
0.0
 33
0.0
 40
0.0
 40
0.0
 40
0.0
 40
0.0
 40
0.2
 40
0.2
 40
0.2
 40
0.2
 40
0.4
 40
0.4
 40
0.4
 40
0.4
 40
0.6
 40
0.6
 40
0.6
 40
0.6
 40
1.0
 40
1.0
 40
1.0
 40
1.0
 10
-0.2049
 20
26.5839
 30
0.0
 10
-0.2049
 20
26.617
 30
0.0
 10
-0.2318
 20
26.6439
 30
0.0
 10
-0.2649
 20
26.6439
 30
0.0
 10
-0.2649
 20
26.6439
 30
0.0
 10
-0.298
 20
26.6439
 30
0.0
 10
-0.3248
 20
26.617
 30
0.0
 10
-0.3248
 20
26.5839
 30
0.0
 10
-0.3248
 20
26.5839
 30
0.0
 10
-0.3248
 20
26.5508
 30
0.0
 10
-0.298
 20
26.524
 30
0.0
 10
-0.2649
 20
26.524
 30
0.0
 10
-0.2649
 20
26.524
 30
0.0
 10
-0.2318
 20
26.524
 30
0.0
 10
-0.2049
 20
26.5508
 30
0.0
 10
-0.2049
 20
26.5839
 30
0.0
  0
SPLINE
  5
12B
330
1F
100
AcDbEntity
  8
Plan 1
370
     9
100
AcDbSpline
210
0.0
220
0.0
230
1.0
 70
    11
 71
     3
 72
    20
 73
    16
 74
     0
 42
0.0000000001
 43
0.0000000001
 12
1.0
 22
0.0
 32
0.0
 13
1.0
 23
0.0
 33
0.0
 40
0.0
 40
0.0
 40
0.0
 40
0.0
 40
0.2
 40
0.2
 40
0.2
 40
0.2
 40
0.4
 40
0.4
 40
0.4
 40
0.4
 40
0.6
 40
0.6
 40
0.6
 40
0.6
 40
1.0
 40
1.0
 40
1.0
 40
1.0
 10
-8.1821
 20
26.5905
 30
0.0
 10
-8.1821
 20
26.6236
 30
0.0
 10
-8.209
 20
26.6505
 30
0.0
 10
-8.2421
 20
26.6505
 30
0.0
 10
-8.2421
 20
26.6505
 30
0.0
 10
-8.2752
 20
26.6505
 30
0.0
 10
-8.302
 20
26.6236
 30
0.0
 10
-8.302
 20
26.5905
 30
0.0
 10
-8.302
 20
26.5905
 30
0.0
 10
-8.302
 20
26.5574
 30
0.0
 10
-8.2752
 20
26.5306
 30
0.0
 10
-8.2421
 20
26.5306
 30
0.0
 10
-8.2421
 20
26.5306
 30
0.0
 10
-8.209
 20
26.5306
 30
0.0
 10
-8.1821
 20
26.5574
 30
0.0
 10
-8.1821
 20
26.5905
 30
0.0
  0
SPLINE
  5
12C
330
1F
100
AcDbEntity
  8
Plan 1
370
     9
100
AcDbSpline
210
0.0
220
0.0
230
1.0
 70
    11
 71
     3
 72
    20
 73
    16
 74
     0
 42
0.0000000001
 43
0.0000000001
 12
1.0
 22
0.0
 32
0.0
 13
1.0
 23
0.0
 33
0.0
 40
0.0
 40
0.0
 40
0.0
 40
0.0
 40
0.2
 40
0.2
 40
0.2
 40
0.2
 40
0.4
 40
0.4
 40
0.4
 40
0.4
 40
0.6
 40
0.6
 40
0.6
 40
0.6
 40
1.0
 40
1.0
 40
1.0
 40
1.0
 10
-8.1754
 20
18.6133
 30
0.0
 10
-8.1754
 20
18.6464
 30
0.0
 10
-8.2023
 20
18.6733
 30
0.0
 10
-8.2354
 20
18.6733
 30
0.0
 10
-8.2354
 20
18.6733
 30
0.0
 10
-8.2685
 20
18.6733
 30
0.0
 10
-8.2953
 20
18.6464
 30
0.0
 10
-8.2953
 20
18.6133
 30
0.0
 10
-8.2953
 20
18.6133
 30
0.0
 10
-8.2953
 20
18.5802
 30
0.0
 10
-8.2685
 20
18.5534
 30
0.0
 10
-8.2354
 20
18.5534
 30
0.0
 10
-8.2354
 20
18.5534
 30
0.0
 10
-8.2023
 20
18.5534
 30
0.0
 10
-8.1754
 20
18.5802
 30
0.0
 10
-8.1754
 20
18.6133
 30
0.0
  0
SPLINE
  5
12D
330
1F
100
AcDbEntity
  8
Plan 1
370
     9
100
AcDbSpline
210
0.0
220
0.0
230
1.0
 70
    11
 71
     3
 72
    20
 73
    16
 74
     0
 42
0.0000000001
 43
0.0000000001
 12
1.0
 22
0.0
 32
0.0
 13
1.0
 23
0.0
 33
0.0
 40
0.0
 40
0.0
 40
0.0
 40
0.0
 40
0.2
 40
0.2
 40
0.2
 40
0.2
 40
0.4
 40
0.4
 40
0.4
 40
0.4
 40
0.6
 40
0.6
 40
0.6
 40
0.6
 40
1.0
 40
1.0
 40
1.0
 40
1.0
 10
-0.1718
 20
18.6133
 30
0.0
 10
-0.1718
 20
18.6464
 30
0.0
 10
-0.1987
 20
18.6733
 30
0.0
 10
-0.2318
 20
18.6733
 30
0.0
 10
-0.2318
 20
18.6733
 30
0.0
 10
-0.2649
 20
18.6733
 30
0.0
 10
-0.2917
 20
18.6464
 30
0.0
 10
-0.2917
 20
18.6133
 30
0.0
 10
-0.2917
 20
18.6133
 30
0.0
 10
-0.2917
 20
18.5802
 30
0.0
 10
-0.2649
 20
18.5534
 30
0.0
 10
-0.2318
 20
18.5534
 30
0.0
 10
-0.2318
 20
18.5534
 30
0.0
 10
-0.1987
 20
18.5534
 30
0.0
 10
-0.1718
 20
18.5802
 30
0.0
 10
-0.1718
 20
18.6133
 30
0.0
  0
SPLINE
  5
12E
330
1F
100
AcDbEntity
  8
Plan 1
370
     9
100
AcDbSpline
210
0.0
220
0.0
230
1.0
 70
    11
 71
     3
 72
    20
 73
    16
 74
     0
 42
0.0000000001
 43
0.0000000001
 12
1.0
 22
0.0
 32
0.0
 13
1.0
 23
0.0
 33
0.0
 40
0.0
 40
0.0
 40
0.0
 40
0.0
 40
0.2
 40
0.2
 40
0.2
 40
0.2
 40
0.4
 40
0.4
 40
0.4
 40
0.4
 40
0.6
 40
0.6
 40
0.6
 40
0.6
 40
1.0
 40
1.0
 40
1.0
 40
1.0
 10
-8.8634
 20
30.1095
 30
0.0
 10
-8.8634
 20
30.1426
 30
0.0
 10
-8.8903
 20
30.1695
 30
0.0
 10
-8.9234
 20
30.1695
 30
0.0
 10
-8.9234
 20
30.1695
 30
0.0
 10
-8.9565
 20
30.1695
 30
0.0
 10
-8.9833
 20
30.1426
 30
0.0
 10
-8.9833
 20
30.1095
 30
0.0
 10
-8.9833
 20
30.1095
 30
0.0
 10
-8.9833
 20
30.0764
 30
0.0
 10
-8.9565
 20
30.0496
 30
0.0
 10
-8.9234
 20
30.0496
 30
0.0
 10
-8.9234
 20
30.0496
 30
0.0
 10
-8.8903
 20
30.0496
 30
0.0
 10
-8.8634
 20
30.0764
 30
0.0
 10
-8.8634
 20
30.1095
 30
0.0
  0
SPLINE
  5
12F
330
1F
100
AcDbEntity
  8
Plan 1
370
     9
100
AcDbSpline
210
0.0
220
0.0
230
1.0
 70
    11
 71
     3
 72
    20
 73
    16
 74
     0
 42
0.0000000001
 43
0.0000000001
 12
1.0
 22
0.0
 32
0.0
 13
1.0
 23
0.0
 33
0.0
 40
0.0
 40
0.0
 40
0.0
 40
0.0
 40
0.2
 40
0.2
 40
0.2
 40
0.2
 40
0.4
 40
0.4
 40
0.4
 40
0.4
 40
0.6
 40
0.6
 40
0.6
 40
0.6
 40
1.0
 40
1.0
 40
1.0
 40
1.0
 10
-0.3437
 20
38.6557
 30
0.0
 10
-0.3437
 20
38.6888
 30
0.0
 10
-0.3706
 20
38.7157
 30
0.0
 10
-0.4037
 20
38.7157
 30
0.0
 10
-0.4037
 20
38.7157
 30
0.0
 10
-0.4368
 20
38.7157
 30
0.0
 10
-0.4636
 20
38.6888
 30
0.0
 10
-0.4636
 20
38.6557
 30
0.0
 10
-0.4636
 20
38.6557
 30
0.0
 10
-0.4636
 20
38.6226
 30
0.0
 10
-0.4368
 20
38.5958
 30
0.0
 10
-0.4037
 20
38.5958
 30
0.0
 10
-0.4037
 20
38.5958
 30
0.0
 10
-0.3706
 20
38.5958
 30
0.0
 10
-0.3437
 20
38.6226
 30
0.0
 10
-0.3437
 20
38.6557
 30
0.0
  0
SPLINE
  5
130
330
1F
100
AcDbEntity
  8
Plan 1
370
     9
100
AcDbSpline
210
0.0
220
0.0
230
1.0
 70
    11
 71
     3
 72
    20
 73
    16
 74
     0
 42
0.0000000001
 43
0.0000000001
 12
1.0
 22
0.0
 32
0.0
 13
1.0
 23
0.0
 33
0.0
 40
0.0
 40
0.0
 40
0.0
 40
0.0
 40
0.2
 40
0.2
 40
0.2
 40
0.2
 40
0.4
 40
0.4
 40
0.4
 40
0.4
 40
0.6
 40
0.6
 40
0.6
 40
0.6
 40
1.0
 40
1.0
 40
1.0
 40
1.0
 10
-8.8369
 20
38.6557
 30
0.0
 10
-8.8369
 20
38.6888
 30
0.0
 10
-8.8638
 20
38.7157
 30
0.0
 10
-8.8969
 20
38.7157
 30
0.0
 10
-8.8969
 20
38.7157
 30
0.0
 10
-8.93
 20
38.7157
 30
0.0
 10
-8.9568
 20
38.6888
 30
0.0
 10
-8.9568
 20
38.6557
 30
0.0
 10
-8.9568
 20
38.6557
 30
0.0
 10
-8.9568
 20
38.6226
 30
0.0
 10
-8.93
 20
38.5958
 30
0.0
 10
-8.8969
 20
38.5958
 30
0.0
 10
-8.8969
 20
38.5958
 30
0.0
 10
-8.8638
 20
38.5958
 30
0.0
 10
-8.8369
 20
38.6226
 30
0.0
 10
-8.8369
 20
38.6557
 30
0.0
  0
SPLINE
  5
131
330
1F
100
AcDbEntity
  8
Plan 1
370
     9
100
AcDbSpline
210
0.0
220
0.0
230
1.0
 70
    11
 71
     3
 72
    20
 73
    16
 74
     0
 42
0.0000000001
 43
0.0000000001
 12
1.0
 22
0.0
 32
0.0
 13
1.0
 23
0.0
 33
0.0
 40
0.0
 40
0.0
 40
0.0
 40
0.0
 40
0.2
 40
0.2
 40
0.2
 40
0.2
 40
0.4
 40
0.4
 40
0.4
 40
0.4
 40
0.6
 40
0.6
 40
0.6
 40
0.6
 40
1.0
 40
1.0
 40
1.0
 40
1.0
 10
15.5181
 20
38.2588
 30
0.0
 10
15.5181
 20
38.2919
 30
0.0
 10
15.4912
 20
38.3188
 30
0.0
 10
15.4581
 20
38.3188
 30
0.0
 10
15.4581
 20
38.3188
 30
0.0
 10
15.425
 20
38.3188
 30
0.0
 10
15.3982
 20
38.2919
 30
0.0
 10
15.3982
 20
38.2588
 30
0.0
 10
15.3982
 20
38.2588
 30
0.0
 10
15.3982
 20
38.2257
 30
0.0
 10
15.425
 20
38.1989
 30
0.0
 10
15.4581
 20
38.1989
 30
0.0
 10
15.4581
 20
38.1989
 30
0.0
 10
15.4912
 20
38.1989
 30
0.0
 10
15.5181
 20
38.2257
 30
0.0
 10
15.5181
 20
38.2588
 30
0.0
  0
SPLINE
  5
132
330
1F
100
AcDbEntity
  8
Plan 1
370
     9
100
AcDbSpline
210
0.0
220
0.0
230
1.0
 70
    11
 71
     3
 72
    20
 73
    16
 74
     0
 42
0.0000000001
 43
0.0000000001
 12
1.0
 22
0.0
 32
0.0
 13
1.0
 23
0.0
 33
0.0
 40
0.0
 40
0.0
 40
0.0
 40
0.0
 40
0.2
 40
0.2
 40
0.2
 40
0.2
 40
0.4
 40
0.4
 40
0.4
 40
0.4
 40
0.6
 40
0.6
 40
0.6
 40
0.6
 40
1.0
 40
1.0
 40
1.0
 40
1.0
 10
15.4652
 20
29.7127
 30
0.0
 10
15.4652
 20
29.7458
 30
0.0
 10
15.4383
 20
29.7727
 30
0.0
 10
15.4052
 20
29.7727
 30
0.0
 10
15.4052
 20
29.7727
 30
0.0
 10
15.3721
 20
29.7727
 30
0.0
 10
15.3453
 20
29.7458
 30
0.0
 10
15.3453
 20
29.7127
 30
0.0
 10
15.3453
 20
29.7127
 30
0.0
 10
15.3453
 20
29.6796
 30
0.0
 10
15.3721
 20
29.6528
 30
0.0
 10
15.4052
 20
29.6528
 30
0.0
 10
15.4052
 20
29.6528
 30
0.0
 10
15.4383
 20
29.6528
 30
0.0
 10
15.4652
 20
29.6796
 30
0.0
 10
15.4652
 20
29.7127
 30
0.0
  0
SPLINE
  5
133
330
1F
100
AcDbEntity
  8
Plan 1
370
     9
100
AcDbSpline
210
0.0
220
0.0
230
1.0
 70
    11
 71
     3
 72
    20
 73
    16
 74
     0
 42
0.0000000001
 43
0.0000000001
 12
1.0
 22
0.0
 32
0.0
 13
1.0
 23
0.0
 33
0.0
 40
0.0
 40
0.0
 40
0.0
 40
0.0
 40
0.2
 40
0.2
 40
0.2
 40
0.2
 40
0.4
 40
0.4
 40
0.4
 40
0.4
 40
0.6
 40
0.6
 40
0.6
 40
0.6
 40
1.0
 40
1.0
 40
1.0
 40
1.0
 10
23.9849
 20
38.2323
 30
0.0
 10
23.9849
 20
38.2654
 30
0.0
 10
23.958
 20
38.2923
 30
0.0
 10
23.9249
 20
38.2923
 30
0.0
 10
23.9249
 20
38.2923
 30
0.0
 10
23.8918
 20
38.2923
 30
0.0
 10
23.865
 20
38.2654
 30
0.0
 10
23.865
 20
38.2323
 30
0.0
 10
23.865
 20
38.2323
 30
0.0
 10
23.865
 20
38.1992
 30
0.0
 10
23.8918
 20
38.1724
 30
0.0
 10
23.9249
 20
38.1724
 30
0.0
 10
23.9249
 20
38.1724
 30
0.0
 10
23.958
 20
38.1724
 30
0.0
 10
23.9849
 20
38.1992
 30
0.0
 10
23.9849
 20
38.2323
 30
0.0
  0
SPLINE
  5
134
330
1F
100
AcDbEntity
  8
Plan 1
370
     9
100
AcDbSpline
210
0.0
220
0.0
230
1.0
 70
    11
 71
     3
 72
    20
 73
    16
 74
     0
 42
0.0000000001
 43
0.0000000001
 12
1.0
 22
0.0
 32
0.0
 13
1.0
 23
0.0
 33
0.0
 40
0.0
 40
0.0
 40
0.0
 40
0.0
 40
0.2
 40
0.2
 40
0.2
 40
0.2
 40
0.4
 40
0.4
 40
0.4
 40
0.4
 40
0.6
 40
0.6
 40
0.6
 40
0.6
 40
1.0
 40
1.0
 40
1.0
 40
1.0
 10
24.0112
 20
29.7126
 30
0.0
 10
24.0112
 20
29.7457
 30
0.0
 10
23.9843
 20
29.7726
 30
0.0
 10
23.9512
 20
29.7726
 30
0.0
 10
23.9512
 20
29.7726
 30
0.0
 10
23.9181
 20
29.7726
 30
0.0
 10
23.8913
 20
29.7457
 30
0.0
 10
23.8913
 20
29.7126
 30
0.0
 10
23.8913
 20
29.7126
 30
0.0
 10
23.8913
 20
29.6795
 30
0.0
 10
23.9181
 20
29.6527
 30
0.0
 10
23.9512
 20
29.6527
 30
0.0
 10
23.9512
 20
29.6527
 30
0.0
 10
23.9843
 20
29.6527
 30
0.0
 10
24.0112
 20
29.6795
 30
0.0
 10
24.0112
 20
29.7126
 30
0.0
  0
SPLINE
  5
135
330
1F
100
AcDbEntity
  8
Plan 1
370
     9
100
AcDbSpline
210
0.0
220
0.0
230
1.0
 70
    11
 71
     3
 72
    20
 73
    16
 74
     0
 42
0.0000000001
 43
0.0000000001
 12
1.0
 22
0.0
 32
0.0
 13
1.0
 23
0.0
 33
0.0
 40
0.0
 40
0.0
 40
0.0
 40
0.0
 40
0.2
 40
0.2
 40
0.2
 40
0.2
 40
0.4
 40
0.4
 40
0.4
 40
0.4
 40
0.6
 40
0.6
 40
0.6
 40
0.6
 40
1.0
 40
1.0
 40
1.0
 40
1.0
 10
26.6969
 20
63.334
 30
0.0
 10
26.6969
 20
65.4727
 30
0.0
 10
24.9632
 20
67.2064
 30
0.0
 10
22.8245
 20
67.2064
 30
0.0
 10
22.8245
 20
67.2064
 30
0.0
 10
20.6859
 20
67.2064
 30
0.0
 10
18.9521
 20
65.4727
 30
0.0
 10
18.9521
 20
63.334
 30
0.0
 10
18.9521
 20
63.334
 30
0.0
 10
18.9521
 20
61.1953
 30
0.0
 10
20.6858
 20
59.4616
 30
0.0
 10
22.8245
 20
59.4616
 30
0.0
 10
22.8245
 20
59.4616
 30
0.0
 10
24.9632
 20
59.4616
 30
0.0
 10
26.6969
 20
61.1953
 30
0.0
 10
26.6969
 20
63.334
 30
0.0
  0
SPLINE
  5
136
330
1F
100
AcDbEntity
  8
Plan 1
370
     9
100
AcDbSpline
210
0.0
220
0.0
230
1.0
 70
     8
 71
     3
 72
    20
 73
    16
 74
     0
 42
0.0000000001
 43
0.0000000001
 12
1.0
 22
0.0
 32
0.0
 13
1.0
 23
0.0
 33
0.0
 40
0.0
 40
0.0
 40
0.0
 40
0.0
 40
0.2
 40
0.2
 40
0.2
 40
0.2
 40
0.4
 40
0.4
 40
0.4
 40
0.4
 40
0.6
 40
0.6
 40
0.6
 40
0.6
 40
1.0
 40
1.0
 40
1.0
 40
1.0
 10
44.019
 20
32.17
 30
0.0
 10
44.019
 20
35.1068
 30
0.0
 10
41.6382
 20
37.4876
 30
0.0
 10
38.7014
 20
37.4876
 30
0.0
 10
38.7014
 20
37.4876
 30
0.0
 10
35.7645
 20
37.4876
 30
0.0
 10
33.3838
 20
35.1068
 30
0.0
 10
33.3838
 20
32.17
 30
0.0
 10
33.3838
 20
32.17
 30
0.0
 10
33.3838
 20
29.2332
 30
0.0
 10
35.7645
 20
26.8524
 30
0.0
 10
38.7014
 20
26.8524
 30
0.0
 10
38.7014
 20
26.8524
 30
0.0
 10
41.6382
 20
26.8523
 30
0.0
 10
44.019
 20
29.2331
 30
0.0
 10
44.019
 20
32.1699
 30
0.0
  0
SPLINE
  5
137
330
1F
100
AcDbEntity
  8
Plan 1
370
     9
100
AcDbSpline
210
0.0
220
0.0
230
1.0
 70
    24
 71
     3
 72
     8
 73
     4
 74
     0
 42
0.0000000001
 43
0.0000000001
 12
1.0
 22
0.0
 32
0.0
 13
1.0
 23
0.0
 33
0.0
 40
0.0
 40
0.0
 40
0.0
 40
0.0
 40
1.0
 40
1.0
 40
1.0
 40
1.0
 10
33.6743
 20
38.3438
 30
0.0
 10
33.6743
 20
38.3438
 30
0.0
 10
33.6486
 20
38.3438
 30
0.0
 10
33.6486
 20
38.3438
 30
0.0
  0
SPLINE
  5
138
330
1F
100
AcDbEntity
  8
Plan 1
370
     9
100
AcDbSpline
210
0.0
220
0.0
230
1.0
 70
     8
 71
     3
 72
    12
 73
     8
 74
     0
 42
0.0000000001
 43
0.0000000001
 12
1.0
 22
0.0
 32
0.0
 13
1.0
 23
0.0
 33
0.0
 40
0.0
 40
0.0
 40
0.0
 40
0.0
 40
0.3333333333333333
 40
0.3333333333333333
 40
0.3333333333333333
 40
0.3333333333333333
 40
1.0
 40
1.0
 40
1.0
 40
1.0
 10
18.2351
 20
59.5845
 30
0.0
 10
18.2351
 20
59.3834
 30
0.0
 10
18.3174
 20
59.188
 30
0.0
 10
18.4574
 20
59.0435
 30
0.0
 10
18.4574
 20
59.0435
 30
0.0
 10
18.5988
 20
58.8982
 30
0.0
 10
18.8152
 20
58.8007
 30
0.0
 10
19.0166
 20
58.8212
 30
0.0
  0
SPLINE
  5
139
330
1F
100
AcDbEntity
  8
Plan 1
370
     9
100
AcDbSpline
210
0.0
220
0.0
230
1.0
 70
     8
 71
     3
 72
     8
 73
     4
 74
     0
 42
0.0000000001
 43
0.0000000001
 12
1.0
 22
0.0
 32
0.0
 13
1.0
 23
0.0
 33
0.0
 40
0.0
 40
0.0
 40
0.0
 40
0.0
 40
1.0
 40
1.0
 40
1.0
 40
1.0
 10
18.4231
 20
60.3027
 30
0.0
 10
18.6811
 20
60.8811
 30
0.0
 10
18.683
 20
61.5415
 30
0.0
 10
18.4278
 20
62.1215
 30
0.0
  0
SPLINE
  5
13A
330
1F
100
AcDbEntity
  8
Plan 1
370
     9
100
AcDbSpline
210
0.0
220
0.0
230
1.0
 70
     8
 71
     3
 72
     8
 73
     4
 74
     0
 42
0.0000000001
 43
0.0000000001
 12
1.0
 22
0.0
 32
0.0
 13
1.0
 23
0.0
 33
0.0
 40
0.0
 40
0.0
 40
0.0
 40
0.0
 40
1.0
 40
1.0
 40
1.0
 40
1.0
 10
18.2351
 20
63.0381
 30
0.0
 10
18.2351
 20
62.7226
 30
0.0
 10
18.3007
 20
62.4104
 30
0.0
 10
18.4278
 20
62.1215
 30
0.0
  0
SPLINE
  5
13B
330
1F
100
AcDbEntity
  8
Plan 1
370
     9
100
AcDbSpline
210
0.0
220
0.0
230
1.0
 70
    24
 71
     3
 72
     8
 73
     4
 74
     0
 42
0.0000000001
 43
0.0000000001
 12
1.0
 22
0.0
 32
0.0
 13
1.0
 23
0.0
 33
0.0
 40
0.0
 40
0.0
 40
0.0
 40
0.0
 40
1.0
 40
1.0
 40
1.0
 40
1.0
 10
18.2351
 20
63.5395
 30
0.0
 10
18.2351
 20
63.5395
 30
0.0
 10
18.2351
 20
63.0381
 30
0.0
 10
18.2351
 20
63.0381
 30
0.0
  0
SPLINE
  5
13C
330
1F
100
AcDbEntity
  8
Plan 1
370
     9
100
AcDbSpline
210
0.0
220
0.0
230
1.0
 70
     8
 71
     3
 72
     8
 73
     4
 74
     0
 42
0.0000000001
 43
0.0000000001
 12
1.0
 22
0.0
 32
0.0
 13
1.0
 23
0.0
 33
0.0
 40
0.0
 40
0.0
 40
0.0
 40
0.0
 40
1.0
 40
1.0
 40
1.0
 40
1.0
 10
18.4904
 20
64.3821
 30
0.0
 10
18.3239
 20
64.1325
 30
0.0
 10
18.2351
 20
63.8397
 30
0.0
 10
18.2351
 20
63.5395
 30
0.0
  0
SPLINE
  5
13D
330
1F
100
AcDbEntity
  8
Plan 1
370
     9
100
AcDbSpline
210
0.0
220
0.0
230
1.0
 70
     8
 71
     3
 72
     8
 73
     4
 74
     0
 42
0.0000000001
 43
0.0000000001
 12
1.0
 22
0.0
 32
0.0
 13
1.0
 23
0.0
 33
0.0
 40
0.0
 40
0.0
 40
0.0
 40
0.0
 40
1.0
 40
1.0
 40
1.0
 40
1.0
 10
22.1073
 20
67.9292
 30
0.0
 10
21.8858
 20
67.9292
 30
0.0
 10
21.6671
 20
67.8807
 30
0.0
 10
21.4663
 20
67.7869
 30
0.0
  0
SPLINE
  5
13E
330
1F
100
AcDbEntity
  8
Plan 1
370
     9
100
AcDbSpline
210
0.0
220
0.0
230
1.0
 70
     8
 71
     3
 72
     8
 73
     4
 74
     0
 42
0.0000000001
 43
0.0000000001
 12
1.0
 22
0.0
 32
0.0
 13
1.0
 23
0.0
 33
0.0
 40
0.0
 40
0.0
 40
0.0
 40
0.0
 40
1.0
 40
1.0
 40
1.0
 40
1.0
 10
24.0984
 20
67.7991
 30
0.0
 10
23.9048
 20
67.8848
 30
0.0
 10
23.6953
 20
67.9292
 30
0.0
 10
23.4837
 20
67.9292
 30
0.0
  0
SPLINE
  5
13F
330
1F
100
AcDbEntity
  8
Plan 1
370
     9
100
AcDbSpline
210
0.0
220
0.0
230
1.0
 70
     8
 71
     3
 72
     8
 73
     4
 74
     0
 42
0.0000000001
 43
0.0000000001
 12
1.0
 22
0.0
 32
0.0
 13
1.0
 23
0.0
 33
0.0
 40
0.0
 40
0.0
 40
0.0
 40
0.0
 40
1.0
 40
1.0
 40
1.0
 40
1.0
 10
24.0984
 20
67.7991
 30
0.0
 10
24.8428
 20
67.4693
 30
0.0
 10
25.6955
 20
67.5111
 30
0.0
 10
26.3976
 20
67.9223
 30
0.0
  0
SPLINE
  5
140
330
1F
100
AcDbEntity
  8
Plan 1
370
     9
100
AcDbSpline
210
0.0
220
0.0
230
1.0
 70
     8
 71
     3
 72
    12
 73
     8
 74
     0
 42
0.0000000001
 43
0.0000000001
 12
1.0
 22
0.0
 32
0.0
 13
1.0
 23
0.0
 33
0.0
 40
0.0
 40
0.0
 40
0.0
 40
0.0
 40
0.3333333333333333
 40
0.3333333333333333
 40
0.3333333333333333
 40
0.3333333333333333
 40
1.0
 40
1.0
 40
1.0
 40
1.0
 10
27.3521
 20
67.1702
 30
0.0
 10
27.3521
 20
67.3715
 30
0.0
 10
27.277
 20
67.5697
 30
0.0
 10
27.1295
 20
67.7068
 30
0.0
 10
27.1295
 20
67.7068
 30
0.0
 10
26.9825
 20
67.8438
 30
0.0
 10
26.7945
 20
67.9375
 30
0.0
 10
26.5929
 20
67.938
 30
0.0
  0
SPLINE
  5
141
330
1F
100
AcDbEntity
  8
Plan 1
370
     9
100
AcDbSpline
210
0.0
220
0.0
230
1.0
 70
     8
 71
     3
 72
     8
 73
     4
 74
     0
 42
0.0000000001
 43
0.0000000001
 12
1.0
 22
0.0
 32
0.0
 13
1.0
 23
0.0
 33
0.0
 40
0.0
 40
0.0
 40
0.0
 40
0.0
 40
1.0
 40
1.0
 40
1.0
 40
1.0
 10
27.1025
 20
66.2858
 30
0.0
 10
27.245
 20
66.5607
 30
0.0
 10
27.3298
 20
66.8615
 30
0.0
 10
27.3521
 20
67.1702
 30
0.0
  0
SPLINE
  5
142
330
1F
100
AcDbEntity
  8
Plan 1
370
     9
100
AcDbSpline
210
0.0
220
0.0
230
1.0
 70
     8
 71
     3
 72
     8
 73
     4
 74
     0
 42
0.0000000001
 43
0.0000000001
 12
1.0
 22
0.0
 32
0.0
 13
1.0
 23
0.0
 33
0.0
 40
0.0
 40
0.0
 40
0.0
 40
0.0
 40
1.0
 40
1.0
 40
1.0
 40
1.0
 10
27.3521
 20
63.5656
 30
0.0
 10
27.3521
 20
63.8326
 30
0.0
 10
27.2816
 20
64.0947
 30
0.0
 10
27.1481
 20
64.3259
 30
0.0
  0
SPLINE
  5
143
330
1F
100
AcDbEntity
  8
Plan 1
370
     9
100
AcDbSpline
210
0.0
220
0.0
230
1.0
 70
    24
 71
     3
 72
     8
 73
     4
 74
     0
 42
0.0000000001
 43
0.0000000001
 12
1.0
 22
0.0
 32
0.0
 13
1.0
 23
0.0
 33
0.0
 40
0.0
 40
0.0
 40
0.0
 40
0.0
 40
1.0
 40
1.0
 40
1.0
 40
1.0
 10
27.3521
 20
63.418
 30
0.0
 10
27.3521
 20
63.418
 30
0.0
 10
27.3521
 20
63.5656
 30
0.0
 10
27.3521
 20
63.5656
 30
0.0
  0
SPLINE
  5
144
330
1F
100
AcDbEntity
  8
Plan 1
370
     9
100
AcDbSpline
210
0.0
220
0.0
230
1.0
 70
     8
 71
     3
 72
     8
 73
     4
 74
     0
 42
0.0000000001
 43
0.0000000001
 12
1.0
 22
0.0
 32
0.0
 13
1.0
 23
0.0
 33
0.0
 40
0.0
 40
0.0
 40
0.0
 40
0.0
 40
1.0
 40
1.0
 40
1.0
 40
1.0
 10
27.0899
 20
62.3569
 30
0.0
 10
27.262
 20
62.684
 30
0.0
 10
27.3521
 20
63.0482
 30
0.0
 10
27.3521
 20
63.418
 30
0.0
  0
SPLINE
  5
145
330
1F
100
AcDbEntity
  8
Plan 1
370
     9
100
AcDbSpline
210
0.0
220
0.0
230
1.0
 70
     8
 71
     3
 72
     8
 73
     4
 74
     0
 42
0.0000000001
 43
0.0000000001
 12
1.0
 22
0.0
 32
0.0
 13
1.0
 23
0.0
 33
0.0
 40
0.0
 40
0.0
 40
0.0
 40
0.0
 40
1.0
 40
1.0
 40
1.0
 40
1.0
 10
27.0899
 20
62.3569
 30
0.0
 10
26.7492
 20
61.7107
 30
0.0
 10
26.755
 20
60.9371
 30
0.0
 10
27.1049
 20
60.2959
 30
0.0
  0
SPLINE
  5
146
330
1F
100
AcDbEntity
  8
Plan 1
370
     9
100
AcDbSpline
210
0.0
220
0.0
230
1.0
 70
     8
 71
     3
 72
     8
 73
     4
 74
     0
 42
0.0000000001
 43
0.0000000001
 12
1.0
 22
0.0
 32
0.0
 13
1.0
 23
0.0
 33
0.0
 40
0.0
 40
0.0
 40
0.0
 40
0.0
 40
1.0
 40
1.0
 40
1.0
 40
1.0
 10
27.3521
 20
59.5801
 30
0.0
 10
27.31
 20
59.8309
 30
0.0
 10
27.2265
 20
60.0727
 30
0.0
 10
27.1049
 20
60.2959
 30
0.0
  0
SPLINE
  5
147
330
1F
100
AcDbEntity
  8
Plan 1
370
     9
100
AcDbSpline
210
0.0
220
0.0
230
1.0
 70
     8
 71
     3
 72
     8
 73
     4
 74
     0
 42
0.0000000001
 43
0.0000000001
 12
1.0
 22
0.0
 32
0.0
 13
1.0
 23
0.0
 33
0.0
 40
0.0
 40
0.0
 40
0.0
 40
0.0
 40
1.0
 40
1.0
 40
1.0
 40
1.0
 10
26.5929
 20
58.8212
 30
0.0
 10
27.0122
 20
58.8212
 30
0.0
 10
27.3521
 20
59.1611
 30
0.0
 10
27.3521
 20
59.5801
 30
0.0
  0
SPLINE
  5
148
330
1F
100
AcDbEntity
  8
Plan 1
370
     9
100
AcDbSpline
210
0.0
220
0.0
230
1.0
 70
     8
 71
     3
 72
     8
 73
     4
 74
     0
 42
0.0000000001
 43
0.0000000001
 12
1.0
 22
0.0
 32
0.0
 13
1.0
 23
0.0
 33
0.0
 40
0.0
 40
0.0
 40
0.0
 40
0.0
 40
1.0
 40
1.0
 40
1.0
 40
1.0
 10
26.0126
 20
59.0875
 30
0.0
 10
26.1925
 20
58.9721
 30
0.0
 10
26.3879
 20
58.8824
 30
0.0
 10
26.5929
 20
58.8212
 30
0.0
  0
SPLINE
  5
149
330
1F
100
AcDbEntity
  8
Plan 1
370
     9
100
AcDbSpline
210
0.0
220
0.0
230
1.0
 70
     8
 71
     3
 72
     8
 73
     4
 74
     0
 42
0.0000000001
 43
0.0000000001
 12
1.0
 22
0.0
 32
0.0
 13
1.0
 23
0.0
 33
0.0
 40
0.0
 40
0.0
 40
0.0
 40
0.0
 40
1.0
 40
1.0
 40
1.0
 40
1.0
 10
26.0126
 20
59.0875
 30
0.0
 10
25.3799
 20
59.4939
 30
0.0
 10
24.5408
 20
59.4854
 30
0.0
 10
23.8946
 20
59.1007
 30
0.0
  0
SPLINE
  5
14A
330
1F
100
AcDbEntity
  8
Plan 1
370
     9
100
AcDbSpline
210
0.0
220
0.0
230
1.0
 70
     8
 71
     3
 72
     8
 73
     4
 74
     0
 42
0.0000000001
 43
0.0000000001
 12
1.0
 22
0.0
 32
0.0
 13
1.0
 23
0.0
 33
0.0
 40
0.0
 40
0.0
 40
0.0
 40
0.0
 40
1.0
 40
1.0
 40
1.0
 40
1.0
 10
27.1025
 20
66.2858
 30
0.0
 10
26.7821
 20
65.6675
 30
0.0
 10
26.7992
 20
64.9285
 30
0.0
 10
27.1481
 20
64.3259
 30
0.0
  0
SPLINE
  5
14B
330
1F
100
AcDbEntity
  8
Plan 1
370
     9
100
AcDbSpline
210
0.0
220
0.0
230
1.0
 70
     8
 71
     3
 72
     8
 73
     4
 74
     0
 42
0.0000000001
 43
0.0000000001
 12
1.0
 22
0.0
 32
0.0
 13
1.0
 23
0.0
 33
0.0
 40
0.0
 40
0.0
 40
0.0
 40
0.0
 40
1.0
 40
1.0
 40
1.0
 40
1.0
 10
18.4231
 20
60.3027
 30
0.0
 10
18.321
 20
60.0738
 30
0.0
 10
18.2577
 20
59.8209
 30
0.0
 10
18.2351
 20
59.5712
 30
0.0
  0
SPLINE
  5
14C
330
1F
100
AcDbEntity
  8
Plan 1
370
     9
100
AcDbSpline
210
0.0
220
0.0
230
1.0
 70
     8
 71
     3
 72
    12
 73
     8
 74
     0
 42
0.0000000001
 43
0.0000000001
 12
1.0
 22
0.0
 32
0.0
 13
1.0
 23
0.0
 33
0.0
 40
0.0
 40
0.0
 40
0.0
 40
0.0
 40
0.3333333333333333
 40
0.3333333333333333
 40
0.3333333333333333
 40
0.3333333333333333
 40
1.0
 40
1.0
 40
1.0
 40
1.0
 10
26.5977
 20
67.9404
 30
0.0
 10
26.5977
 20
67.9404
 30
0.0
 10
26.4703
 20
67.9345
 30
0.0
 10
26.4703
 20
67.9345
 30
0.0
 10
26.4703
 20
67.9345
 30
0.0
 10
26.4703
 20
67.9345
 30
0.0
 10
26.3778
 20
67.9158
 30
0.0
 10
26.3778
 20
67.9158
 30
0.0
  0
SPLINE
  5
14D
330
1F
100
AcDbEntity
  8
Plan 1
370
     9
100
AcDbSpline
210
0.0
220
0.0
230
1.0
 70
    24
 71
     3
 72
     8
 73
     4
 74
     0
 42
0.0000000001
 43
0.0000000001
 12
1.0
 22
0.0
 32
0.0
 13
1.0
 23
0.0
 33
0.0
 40
0.0
 40
0.0
 40
0.0
 40
0.0
 40
1.0
 40
1.0
 40
1.0
 40
1.0
 10
23.4837
 20
67.9292
 30
0.0
 10
23.4837
 20
67.9292
 30
0.0
 10
22.1073
 20
67.9292
 30
0.0
 10
22.1073
 20
67.9292
 30
0.0
  0
SPLINE
  5
14E
330
1F
100
AcDbEntity
  8
Plan 1
370
     9
100
AcDbSpline
210
0.0
220
0.0
230
1.0
 70
     8
 71
     3
 72
    20
 73
    16
 74
     0
 42
0.0000000001
 43
0.0000000001
 12
1.0
 22
0.0
 32
0.0
 13
1.0
 23
0.0
 33
0.0
 40
0.0
 40
0.0
 40
0.0
 40
0.0
 40
0.2
 40
0.2
 40
0.2
 40
0.2
 40
0.4
 40
0.4
 40
0.4
 40
0.4
 40
0.6
 40
0.6
 40
0.6
 40
0.6
 40
1.0
 40
1.0
 40
1.0
 40
1.0
 10
18.217
 20
67.2374
 30
0.0
 10
18.217
 20
67.4386
 30
0.0
 10
18.2973
 20
67.6318
 30
0.0
 10
18.4393
 20
67.774
 30
0.0
 10
18.4393
 20
67.774
 30
0.0
 10
18.5818
 20
67.9163
 30
0.0
 10
18.7569
 20
67.9874
 30
0.0
 10
18.9581
 20
67.9874
 30
0.0
 10
18.9581
 20
67.9874
 30
0.0
 10
18.9581
 20
67.9874
 30
0.0
 10
19.0744
 20
67.9701
 30
0.0
 10
19.0744
 20
67.9701
 30
0.0
 10
19.0744
 20
67.9701
 30
0.0
 10
19.0744
 20
67.9701
 30
0.0
 10
19.2133
 20
67.9253
 30
0.0
 10
19.2133
 20
67.9253
 30
0.0
  0
SPLINE
  5
14F
330
1F
100
AcDbEntity
  8
Plan 1
370
     9
100
AcDbSpline
210
0.0
220
0.0
230
1.0
 70
    11
 71
     3
 72
    20
 73
    16
 74
     0
 42
0.0000000001
 43
0.0000000001
 12
1.0
 22
0.0
 32
0.0
 13
1.0
 23
0.0
 33
0.0
 40
0.0
 40
0.0
 40
0.0
 40
0.0
 40
0.2
 40
0.2
 40
0.2
 40
0.2
 40
0.4
 40
0.4
 40
0.4
 40
0.4
 40
0.6
 40
0.6
 40
0.6
 40
0.6
 40
1.0
 40
1.0
 40
1.0
 40
1.0
 10
26.5678
 20
59.8435
 30
0.0
 10
26.5678
 20
59.8938
 30
0.0
 10
26.5273
 20
59.9344
 30
0.0
 10
26.4768
 20
59.9344
 30
0.0
 10
26.4768
 20
59.9344
 30
0.0
 10
26.4267
 20
59.9344
 30
0.0
 10
26.386
 20
59.8938
 30
0.0
 10
26.386
 20
59.8435
 30
0.0
 10
26.386
 20
59.8435
 30
0.0
 10
26.386
 20
59.7932
 30
0.0
 10
26.4267
 20
59.7526
 30
0.0
 10
26.4768
 20
59.7526
 30
0.0
 10
26.4768
 20
59.7526
 30
0.0
 10
26.5273
 20
59.7526
 30
0.0
 10
26.5678
 20
59.7932
 30
0.0
 10
26.5678
 20
59.8435
 30
0.0
  0
SPLINE
  5
150
330
1F
100
AcDbEntity
  8
Plan 1
370
     9
100
AcDbSpline
210
0.0
220
0.0
230
1.0
 70
    11
 71
     3
 72
    20
 73
    16
 74
     0
 42
0.0000000001
 43
0.0000000001
 12
1.0
 22
0.0
 32
0.0
 13
1.0
 23
0.0
 33
0.0
 40
0.0
 40
0.0
 40
0.0
 40
0.0
 40
0.2
 40
0.2
 40
0.2
 40
0.2
 40
0.4
 40
0.4
 40
0.4
 40
0.4
 40
0.6
 40
0.6
 40
0.6
 40
0.6
 40
1.0
 40
1.0
 40
1.0
 40
1.0
 10
26.5528
 20
67.1885
 30
0.0
 10
26.5528
 20
67.239
 30
0.0
 10
26.5119
 20
67.2798
 30
0.0
 10
26.4616
 20
67.2798
 30
0.0
 10
26.4616
 20
67.2798
 30
0.0
 10
26.4114
 20
67.2798
 30
0.0
 10
26.3707
 20
67.239
 30
0.0
 10
26.3707
 20
67.1885
 30
0.0
 10
26.3707
 20
67.1885
 30
0.0
 10
26.3707
 20
67.1384
 30
0.0
 10
26.4114
 20
67.0977
 30
0.0
 10
26.4616
 20
67.0977
 30
0.0
 10
26.4616
 20
67.0977
 30
0.0
 10
26.5119
 20
67.0977
 30
0.0
 10
26.5528
 20
67.1384
 30
0.0
 10
26.5528
 20
67.1885
 30
0.0
  0
SPLINE
  5
151
330
1F
100
AcDbEntity
  8
Plan 1
370
     9
100
AcDbSpline
210
0.0
220
0.0
230
1.0
 70
     8
 71
     3
 72
     8
 73
     4
 74
     0
 42
0.0000000001
 43
0.0000000001
 12
1.0
 22
0.0
 32
0.0
 13
1.0
 23
0.0
 33
0.0
 40
0.0
 40
0.0
 40
0.0
 40
0.0
 40
1.0
 40
1.0
 40
1.0
 40
1.0
 10
21.5018
 20
67.8172
 30
0.0
 10
21.6953
 20
67.9028
 30
0.0
 10
21.9047
 20
67.9472
 30
0.0
 10
22.1164
 20
67.9472
 30
0.0
  0
SPLINE
  5
152
330
1F
100
AcDbEntity
  8
Plan 1
370
     9
100
AcDbSpline
210
0.0
220
0.0
230
1.0
 70
     8
 71
     3
 72
     8
 73
     4
 74
     0
 42
0.0000000001
 43
0.0000000001
 12
1.0
 22
0.0
 32
0.0
 13
1.0
 23
0.0
 33
0.0
 40
0.0
 40
0.0
 40
0.0
 40
0.0
 40
1.0
 40
1.0
 40
1.0
 40
1.0
 10
21.5018
 20
67.8172
 30
0.0
 10
20.7574
 20
67.4874
 30
0.0
 10
19.9003
 20
67.518
 30
0.0
 10
19.1979
 20
67.9293
 30
0.0
  0
SPLINE
  5
153
330
1F
100
AcDbEntity
  8
Plan 1
370
     9
100
AcDbSpline
210
0.0
220
0.0
230
1.0
 70
     8
 71
     3
 72
     8
 73
     4
 74
     0
 42
0.0000000001
 43
0.0000000001
 12
1.0
 22
0.0
 32
0.0
 13
1.0
 23
0.0
 33
0.0
 40
0.0
 40
0.0
 40
0.0
 40
0.0
 40
1.0
 40
1.0
 40
1.0
 40
1.0
 10
18.4617
 20
66.2323
 30
0.0
 10
18.3192
 20
66.5069
 30
0.0
 10
18.2387
 20
66.9915
 30
0.0
 10
18.2168
 20
67.3003
 30
0.0
  0
SPLINE
  5
154
330
1F
100
AcDbEntity
  8
Plan 1
370
     9
100
AcDbSpline
210
0.0
220
0.0
230
1.0
 70
     8
 71
     3
 72
     8
 73
     4
 74
     0
 42
0.0000000001
 43
0.0000000001
 12
1.0
 22
0.0
 32
0.0
 13
1.0
 23
0.0
 33
0.0
 40
0.0
 40
0.0
 40
0.0
 40
0.0
 40
1.0
 40
1.0
 40
1.0
 40
1.0
 10
18.2481
 20
63.5835
 30
0.0
 10
18.2481
 20
63.8504
 30
0.0
 10
18.3186
 20
64.1128
 30
0.0
 10
18.452
 20
64.3439
 30
0.0
  0
SPLINE
  5
155
330
1F
100
AcDbEntity
  8
Plan 1
370
     9
100
AcDbSpline
210
0.0
220
0.0
230
1.0
 70
    24
 71
     3
 72
     8
 73
     4
 74
     0
 42
0.0000000001
 43
0.0000000001
 12
1.0
 22
0.0
 32
0.0
 13
1.0
 23
0.0
 33
0.0
 40
0.0
 40
0.0
 40
0.0
 40
0.0
 40
1.0
 40
1.0
 40
1.0
 40
1.0
 10
18.2481
 20
63.4361
 30
0.0
 10
18.2481
 20
63.4361
 30
0.0
 10
18.2481
 20
63.5835
 30
0.0
 10
18.2481
 20
63.5835
 30
0.0
  0
SPLINE
  5
156
330
1F
100
AcDbEntity
  8
Plan 1
370
     9
100
AcDbSpline
210
0.0
220
0.0
230
1.0
 70
     8
 71
     3
 72
    12
 73
     8
 74
     0
 42
0.0000000001
 43
0.0000000001
 12
1.0
 22
0.0
 32
0.0
 13
1.0
 23
0.0
 33
0.0
 40
0.0
 40
0.0
 40
0.0
 40
0.0
 40
0.3333333333333333
 40
0.3333333333333333
 40
0.3333333333333333
 40
0.3333333333333333
 40
1.0
 40
1.0
 40
1.0
 40
1.0
 10
19.5873
 20
59.1056
 30
0.0
 10
19.4806
 20
59.0371
 30
0.0
 10
19.336
 20
58.9541
 30
0.0
 10
19.2187
 20
58.896
 30
0.0
 10
19.2187
 20
58.896
 30
0.0
 10
19.0964
 20
58.8359
 30
0.0
 10
18.9442
 20
58.7977
 30
0.0
 10
18.9489
 20
58.8258
 30
0.0
  0
SPLINE
  5
157
330
1F
100
AcDbEntity
  8
Plan 1
370
     9
100
AcDbSpline
210
0.0
220
0.0
230
1.0
 70
     8
 71
     3
 72
     8
 73
     4
 74
     0
 42
0.0000000001
 43
0.0000000001
 12
1.0
 22
0.0
 32
0.0
 13
1.0
 23
0.0
 33
0.0
 40
0.0
 40
0.0
 40
0.0
 40
0.0
 40
1.0
 40
1.0
 40
1.0
 40
1.0
 10
19.5873
 20
59.1056
 30
0.0
 10
20.2202
 20
59.5121
 30
0.0
 10
21.028
 20
59.5257
 30
0.0
 10
21.6741
 20
59.141
 30
0.0
  0
SPLINE
  5
158
330
1F
100
AcDbEntity
  8
Plan 1
370
     9
100
AcDbSpline
210
0.0
220
0.0
230
1.0
 70
     8
 71
     3
 72
     8
 73
     4
 74
     0
 42
0.0000000001
 43
0.0000000001
 12
1.0
 22
0.0
 32
0.0
 13
1.0
 23
0.0
 33
0.0
 40
0.0
 40
0.0
 40
0.0
 40
0.0
 40
1.0
 40
1.0
 40
1.0
 40
1.0
 10
18.4438
 20
66.2679
 30
0.0
 10
18.7641
 20
65.6497
 30
0.0
 10
18.8009
 20
64.9466
 30
0.0
 10
18.452
 20
64.3439
 30
0.0
  0
SPLINE
  5
159
330
1F
100
AcDbEntity
  8
Plan 1
370
     9
100
AcDbSpline
210
0.0
220
0.0
230
1.0
 70
     8
 71
     3
 72
     8
 73
     4
 74
     0
 42
0.0000000001
 43
0.0000000001
 12
1.0
 22
0.0
 32
0.0
 13
1.0
 23
0.0
 33
0.0
 40
0.0
 40
0.0
 40
0.0
 40
0.0
 40
1.0
 40
1.0
 40
1.0
 40
1.0
 10
22.8355
 20
58.6554
 30
0.0
 10
22.4969
 20
58.6057
 30
0.0
 10
22.048
 20
58.8289
 30
0.0
 10
21.6651
 20
59.1501
 30
0.0
  0
SPLINE
  5
15A
330
1F
100
AcDbEntity
  8
Plan 1
370
     9
100
AcDbSpline
210
0.0
220
0.0
230
1.0
 70
    11
 71
     3
 72
    20
 73
    16
 74
     0
 42
0.0000000001
 43
0.0000000001
 12
1.0
 22
0.0
 32
0.0
 13
1.0
 23
0.0
 33
0.0
 40
0.0
 40
0.0
 40
0.0
 40
0.0
 40
0.2
 40
0.2
 40
0.2
 40
0.2
 40
0.4
 40
0.4
 40
0.4
 40
0.4
 40
0.6
 40
0.6
 40
0.6
 40
0.6
 40
1.0
 40
1.0
 40
1.0
 40
1.0
 10
19.0322
 20
59.8615
 30
0.0
 10
19.0322
 20
59.9117
 30
0.0
 10
19.073
 20
59.9523
 30
0.0
 10
19.1231
 20
59.9523
 30
0.0
 10
19.1231
 20
59.9523
 30
0.0
 10
19.1734
 20
59.9523
 30
0.0
 10
19.2141
 20
59.9117
 30
0.0
 10
19.2141
 20
59.8615
 30
0.0
 10
19.2141
 20
59.8615
 30
0.0
 10
19.2141
 20
59.8113
 30
0.0
 10
19.1734
 20
59.7704
 30
0.0
 10
19.1231
 20
59.7704
 30
0.0
 10
19.1231
 20
59.7704
 30
0.0
 10
19.073
 20
59.7704
 30
0.0
 10
19.0322
 20
59.8113
 30
0.0
 10
19.0322
 20
59.8615
 30
0.0
  0
SPLINE
  5
15B
330
1F
100
AcDbEntity
  8
Plan 1
370
     9
100
AcDbSpline
210
0.0
220
0.0
230
1.0
 70
    11
 71
     3
 72
    20
 73
    16
 74
     0
 42
0.0000000001
 43
0.0000000001
 12
1.0
 22
0.0
 32
0.0
 13
1.0
 23
0.0
 33
0.0
 40
0.0
 40
0.0
 40
0.0
 40
0.0
 40
0.2
 40
0.2
 40
0.2
 40
0.2
 40
0.4
 40
0.4
 40
0.4
 40
0.4
 40
0.6
 40
0.6
 40
0.6
 40
0.6
 40
1.0
 40
1.0
 40
1.0
 40
1.0
 10
19.0475
 20
67.2067
 30
0.0
 10
19.0475
 20
67.2571
 30
0.0
 10
19.0881
 20
67.2977
 30
0.0
 10
19.1382
 20
67.2977
 30
0.0
 10
19.1382
 20
67.2977
 30
0.0
 10
19.1887
 20
67.2977
 30
0.0
 10
19.2295
 20
67.2571
 30
0.0
 10
19.2295
 20
67.2067
 30
0.0
 10
19.2295
 20
67.2067
 30
0.0
 10
19.2295
 20
67.1566
 30
0.0
 10
19.1887
 20
67.1158
 30
0.0
 10
19.1382
 20
67.1158
 30
0.0
 10
19.1382
 20
67.1158
 30
0.0
 10
19.0881
 20
67.1158
 30
0.0
 10
19.0475
 20
67.1566
 30
0.0
 10
19.0475
 20
67.2067
 30
0.0
  0
SPLINE
  5
15C
330
1F
100
AcDbEntity
  8
Plan 1
370
     9
100
AcDbSpline
210
0.0
220
0.0
230
1.0
 70
     8
 71
     3
 72
     8
 73
     4
 74
     0
 42
0.0000000001
 43
0.0000000001
 12
1.0
 22
0.0
 32
0.0
 13
1.0
 23
0.0
 33
0.0
 40
0.0
 40
0.0
 40
0.0
 40
0.0
 40
1.0
 40
1.0
 40
1.0
 40
1.0
 10
22.7727
 20
58.6556
 30
0.0
 10
22.9851
 20
58.6057
 30
0.0
 10
23.5421
 20
58.7977
 30
0.0
 10
23.9298
 20
59.1187
 30
0.0
  0
SPLINE
  5
15D
330
1F
100
AcDbEntity
  8
Plan 1
370
     9
100
AcDbSpline
210
0.0
220
0.0
230
1.0
 70
     8
 71
     3
 72
    12
 73
     8
 74
     0
 42
0.0000000001
 43
0.0000000001
 12
1.0
 22
0.0
 32
0.0
 13
1.0
 23
0.0
 33
0.0
 40
0.0
 40
0.0
 40
0.0
 40
0.0
 40
0.3333333333333333
 40
0.3333333333333333
 40
0.3333333333333333
 40
0.3333333333333333
 40
1.0
 40
1.0
 40
1.0
 40
1.0
 10
32.5293
 20
27.0281
 30
0.0
 10
32.5293
 20
26.7543
 30
0.0
 10
32.6411
 20
26.4885
 30
0.0
 10
32.8316
 20
26.2924
 30
0.0
 10
32.8316
 20
26.2924
 30
0.0
 10
33.0239
 20
26.0946
 30
0.0
 10
33.3181
 20
25.9622
 30
0.0
 10
33.5919
 20
25.99
 30
0.0
  0
SPLINE
  5
15E
330
1F
100
AcDbEntity
  8
Plan 1
370
     9
100
AcDbSpline
210
0.0
220
0.0
230
1.0
 70
     8
 71
     3
 72
     8
 73
     4
 74
     0
 42
0.0000000001
 43
0.0000000001
 12
1.0
 22
0.0
 32
0.0
 13
1.0
 23
0.0
 33
0.0
 40
0.0
 40
0.0
 40
0.0
 40
0.0
 40
1.0
 40
1.0
 40
1.0
 40
1.0
 10
32.785
 20
28.0044
 30
0.0
 10
33.1359
 20
28.791
 30
0.0
 10
33.1382
 20
29.6892
 30
0.0
 10
32.7914
 20
30.4777
 30
0.0
  0
SPLINE
  5
15F
330
1F
100
AcDbEntity
  8
Plan 1
370
     9
100
AcDbSpline
210
0.0
220
0.0
230
1.0
 70
     8
 71
     3
 72
     8
 73
     4
 74
     0
 42
0.0000000001
 43
0.0000000001
 12
1.0
 22
0.0
 32
0.0
 13
1.0
 23
0.0
 33
0.0
 40
0.0
 40
0.0
 40
0.0
 40
0.0
 40
1.0
 40
1.0
 40
1.0
 40
1.0
 10
32.5293
 20
31.7242
 30
0.0
 10
32.5293
 20
31.2951
 30
0.0
 10
32.6184
 20
30.8704
 30
0.0
 10
32.7914
 20
30.4777
 30
0.0
  0
SPLINE
  5
160
330
1F
100
AcDbEntity
  8
Plan 1
370
     9
100
AcDbSpline
210
0.0
220
0.0
230
1.0
 70
    24
 71
     3
 72
     8
 73
     4
 74
     0
 42
0.0000000001
 43
0.0000000001
 12
1.0
 22
0.0
 32
0.0
 13
1.0
 23
0.0
 33
0.0
 40
0.0
 40
0.0
 40
0.0
 40
0.0
 40
1.0
 40
1.0
 40
1.0
 40
1.0
 10
32.5293
 20
32.406
 30
0.0
 10
32.5293
 20
32.406
 30
0.0
 10
32.5293
 20
31.7242
 30
0.0
 10
32.5293
 20
31.7242
 30
0.0
  0
SPLINE
  5
161
330
1F
100
AcDbEntity
  8
Plan 1
370
     9
100
AcDbSpline
210
0.0
220
0.0
230
1.0
 70
     8
 71
     3
 72
     8
 73
     4
 74
     0
 42
0.0000000001
 43
0.0000000001
 12
1.0
 22
0.0
 32
0.0
 13
1.0
 23
0.0
 33
0.0
 40
0.0
 40
0.0
 40
0.0
 40
0.0
 40
1.0
 40
1.0
 40
1.0
 40
1.0
 10
32.8765
 20
33.5516
 30
0.0
 10
32.6501
 20
33.2125
 30
0.0
 10
32.5293
 20
32.8138
 30
0.0
 10
32.5293
 20
32.406
 30
0.0
  0
SPLINE
  5
162
330
1F
100
AcDbEntity
  8
Plan 1
370
     9
100
AcDbSpline
210
0.0
220
0.0
230
1.0
 70
     8
 71
     3
 72
     8
 73
     4
 74
     0
 42
0.0000000001
 43
0.0000000001
 12
1.0
 22
0.0
 32
0.0
 13
1.0
 23
0.0
 33
0.0
 40
0.0
 40
0.0
 40
0.0
 40
0.0
 40
1.0
 40
1.0
 40
1.0
 40
1.0
 10
37.795
 20
38.375
 30
0.0
 10
37.4935
 20
38.375
 30
0.0
 10
37.1958
 20
38.3089
 30
0.0
 10
36.9231
 20
38.1817
 30
0.0
  0
SPLINE
  5
163
330
1F
100
AcDbEntity
  8
Plan 1
370
     9
100
AcDbSpline
210
0.0
220
0.0
230
1.0
 70
     8
 71
     3
 72
     8
 73
     4
 74
     0
 42
0.0000000001
 43
0.0000000001
 12
1.0
 22
0.0
 32
0.0
 13
1.0
 23
0.0
 33
0.0
 40
0.0
 40
0.0
 40
0.0
 40
0.0
 40
1.0
 40
1.0
 40
1.0
 40
1.0
 10
40.502
 20
38.1981
 30
0.0
 10
40.2389
 20
38.3146
 30
0.0
 10
39.954
 20
38.375
 30
0.0
 10
39.666
 20
38.375
 30
0.0
  0
SPLINE
  5
164
330
1F
100
AcDbEntity
  8
Plan 1
370
     9
100
AcDbSpline
210
0.0
220
0.0
230
1.0
 70
     8
 71
     3
 72
     8
 73
     4
 74
     0
 42
0.0000000001
 43
0.0000000001
 12
1.0
 22
0.0
 32
0.0
 13
1.0
 23
0.0
 33
0.0
 40
0.0
 40
0.0
 40
0.0
 40
0.0
 40
1.0
 40
1.0
 40
1.0
 40
1.0
 10
40.502
 20
38.1981
 30
0.0
 10
41.5141
 20
37.7497
 30
0.0
 10
42.6736
 20
37.8064
 30
0.0
 10
43.6286
 20
38.3656
 30
0.0
  0
SPLINE
  5
165
330
1F
100
AcDbEntity
  8
Plan 1
370
     9
100
AcDbSpline
210
0.0
220
0.0
230
1.0
 70
     8
 71
     3
 72
    12
 73
     8
 74
     0
 42
0.0000000001
 43
0.0000000001
 12
1.0
 22
0.0
 32
0.0
 13
1.0
 23
0.0
 33
0.0
 40
0.0
 40
0.0
 40
0.0
 40
0.0
 40
0.3333333333333333
 40
0.3333333333333333
 40
0.3333333333333333
 40
0.3333333333333333
 40
1.0
 40
1.0
 40
1.0
 40
1.0
 10
44.9264
 20
37.3429
 30
0.0
 10
44.9264
 20
37.6166
 30
0.0
 10
44.8243
 20
37.8861
 30
0.0
 10
44.624
 20
38.0725
 30
0.0
 10
44.624
 20
38.0725
 30
0.0
 10
44.424
 20
38.259
 30
0.0
 10
44.1684
 20
38.3861
 30
0.0
 10
43.8943
 20
38.3871
 30
0.0
  0
SPLINE
  5
166
330
1F
100
AcDbEntity
  8
Plan 1
370
     9
100
AcDbSpline
210
0.0
220
0.0
230
1.0
 70
     8
 71
     3
 72
     8
 73
     4
 74
     0
 42
0.0000000001
 43
0.0000000001
 12
1.0
 22
0.0
 32
0.0
 13
1.0
 23
0.0
 33
0.0
 40
0.0
 40
0.0
 40
0.0
 40
0.0
 40
1.0
 40
1.0
 40
1.0
 40
1.0
 10
44.587
 20
36.1403
 30
0.0
 10
44.7806
 20
36.5138
 30
0.0
 10
44.8962
 20
36.923
 30
0.0
 10
44.9264
 20
37.3429
 30
0.0
  0
SPLINE
  5
167
330
1F
100
AcDbEntity
  8
Plan 1
370
     9
100
AcDbSpline
210
0.0
220
0.0
230
1.0
 70
     8
 71
     3
 72
     8
 73
     4
 74
     0
 42
0.0000000001
 43
0.0000000001
 12
1.0
 22
0.0
 32
0.0
 13
1.0
 23
0.0
 33
0.0
 40
0.0
 40
0.0
 40
0.0
 40
0.0
 40
1.0
 40
1.0
 40
1.0
 40
1.0
 10
44.9264
 20
32.4412
 30
0.0
 10
44.9264
 20
32.8043
 30
0.0
 10
44.8307
 20
33.1608
 30
0.0
 10
44.649
 20
33.475
 30
0.0
  0
SPLINE
  5
168
330
1F
100
AcDbEntity
  8
Plan 1
370
     9
100
AcDbSpline
210
0.0
220
0.0
230
1.0
 70
    24
 71
     3
 72
     8
 73
     4
 74
     0
 42
0.0000000001
 43
0.0000000001
 12
1.0
 22
0.0
 32
0.0
 13
1.0
 23
0.0
 33
0.0
 40
0.0
 40
0.0
 40
0.0
 40
0.0
 40
1.0
 40
1.0
 40
1.0
 40
1.0
 10
44.9264
 20
32.2407
 30
0.0
 10
44.9264
 20
32.2407
 30
0.0
 10
44.9264
 20
32.4412
 30
0.0
 10
44.9264
 20
32.4412
 30
0.0
  0
SPLINE
  5
169
330
1F
100
AcDbEntity
  8
Plan 1
370
     9
100
AcDbSpline
210
0.0
220
0.0
230
1.0
 70
     8
 71
     3
 72
     8
 73
     4
 74
     0
 42
0.0000000001
 43
0.0000000001
 12
1.0
 22
0.0
 32
0.0
 13
1.0
 23
0.0
 33
0.0
 40
0.0
 40
0.0
 40
0.0
 40
0.0
 40
1.0
 40
1.0
 40
1.0
 40
1.0
 10
44.5697
 20
30.7978
 30
0.0
 10
44.804
 20
31.2426
 30
0.0
 10
44.9264
 20
31.7378
 30
0.0
 10
44.9264
 20
32.2407
 30
0.0
  0
SPLINE
  5
16A
330
1F
100
AcDbEntity
  8
Plan 1
370
     9
100
AcDbSpline
210
0.0
220
0.0
230
1.0
 70
     8
 71
     3
 72
     8
 73
     4
 74
     0
 42
0.0000000001
 43
0.0000000001
 12
1.0
 22
0.0
 32
0.0
 13
1.0
 23
0.0
 33
0.0
 40
0.0
 40
0.0
 40
0.0
 40
0.0
 40
1.0
 40
1.0
 40
1.0
 40
1.0
 10
44.5697
 20
30.7978
 30
0.0
 10
44.1067
 20
29.9191
 30
0.0
 10
44.1146
 20
28.8672
 30
0.0
 10
44.5904
 20
27.9953
 30
0.0
  0
SPLINE
  5
16B
330
1F
100
AcDbEntity
  8
Plan 1
370
     9
100
AcDbSpline
210
0.0
220
0.0
230
1.0
 70
     8
 71
     3
 72
     8
 73
     4
 74
     0
 42
0.0000000001
 43
0.0000000001
 12
1.0
 22
0.0
 32
0.0
 13
1.0
 23
0.0
 33
0.0
 40
0.0
 40
0.0
 40
0.0
 40
0.0
 40
1.0
 40
1.0
 40
1.0
 40
1.0
 10
44.9264
 20
27.0221
 30
0.0
 10
44.8694
 20
27.363
 30
0.0
 10
44.7559
 20
27.692
 30
0.0
 10
44.5904
 20
27.9953
 30
0.0
  0
SPLINE
  5
16C
330
1F
100
AcDbEntity
  8
Plan 1
370
     9
100
AcDbSpline
210
0.0
220
0.0
230
1.0
 70
     8
 71
     3
 72
     8
 73
     4
 74
     0
 42
0.0000000001
 43
0.0000000001
 12
1.0
 22
0.0
 32
0.0
 13
1.0
 23
0.0
 33
0.0
 40
0.0
 40
0.0
 40
0.0
 40
0.0
 40
1.0
 40
1.0
 40
1.0
 40
1.0
 10
43.8943
 20
25.99
 30
0.0
 10
44.4642
 20
25.99
 30
0.0
 10
44.9264
 20
26.4522
 30
0.0
 10
44.9264
 20
27.0221
 30
0.0
  0
SPLINE
  5
16D
330
1F
100
AcDbEntity
  8
Plan 1
370
     9
100
AcDbSpline
210
0.0
220
0.0
230
1.0
 70
     8
 71
     3
 72
     8
 73
     4
 74
     0
 42
0.0000000001
 43
0.0000000001
 12
1.0
 22
0.0
 32
0.0
 13
1.0
 23
0.0
 33
0.0
 40
0.0
 40
0.0
 40
0.0
 40
0.0
 40
1.0
 40
1.0
 40
1.0
 40
1.0
 10
43.1052
 20
26.3522
 30
0.0
 10
43.3499
 20
26.1952
 30
0.0
 10
43.6154
 20
26.0732
 30
0.0
 10
43.8943
 20
25.99
 30
0.0
  0
SPLINE
  5
16E
330
1F
100
AcDbEntity
  8
Plan 1
370
     9
100
AcDbSpline
210
0.0
220
0.0
230
1.0
 70
     8
 71
     3
 72
     8
 73
     4
 74
     0
 42
0.0000000001
 43
0.0000000001
 12
1.0
 22
0.0
 32
0.0
 13
1.0
 23
0.0
 33
0.0
 40
0.0
 40
0.0
 40
0.0
 40
0.0
 40
1.0
 40
1.0
 40
1.0
 40
1.0
 10
43.1052
 20
26.3522
 30
0.0
 10
42.2449
 20
26.9049
 30
0.0
 10
41.1036
 20
26.893
 30
0.0
 10
40.2251
 20
26.3699
 30
0.0
  0
SPLINE
  5
16F
330
1F
100
AcDbEntity
  8
Plan 1
370
     9
100
AcDbSpline
210
0.0
220
0.0
230
1.0
 70
     8
 71
     3
 72
     8
 73
     4
 74
     0
 42
0.0000000001
 43
0.0000000001
 12
1.0
 22
0.0
 32
0.0
 13
1.0
 23
0.0
 33
0.0
 40
0.0
 40
0.0
 40
0.0
 40
0.0
 40
1.0
 40
1.0
 40
1.0
 40
1.0
 10
44.587
 20
36.1403
 30
0.0
 10
44.1515
 20
35.2995
 30
0.0
 10
44.1746
 20
34.2946
 30
0.0
 10
44.649
 20
33.475
 30
0.0
  0
SPLINE
  5
170
330
1F
100
AcDbEntity
  8
Plan 1
370
     9
100
AcDbSpline
210
0.0
220
0.0
230
1.0
 70
     8
 71
     3
 72
     8
 73
     4
 74
     0
 42
0.0000000001
 43
0.0000000001
 12
1.0
 22
0.0
 32
0.0
 13
1.0
 23
0.0
 33
0.0
 40
0.0
 40
0.0
 40
0.0
 40
0.0
 40
1.0
 40
1.0
 40
1.0
 40
1.0
 10
32.785
 20
28.0044
 30
0.0
 10
32.6463
 20
27.6933
 30
0.0
 10
32.5601
 20
27.3492
 30
0.0
 10
32.5293
 20
27.0098
 30
0.0
  0
SPLINE
  5
171
330
1F
100
AcDbEntity
  8
Plan 1
370
     9
100
AcDbSpline
210
0.0
220
0.0
230
1.0
 70
     8
 71
     3
 72
    12
 73
     8
 74
     0
 42
0.0000000001
 43
0.0000000001
 12
1.0
 22
0.0
 32
0.0
 13
1.0
 23
0.0
 33
0.0
 40
0.0
 40
0.0
 40
0.0
 40
0.0
 40
0.3333333333333333
 40
0.3333333333333333
 40
0.3333333333333333
 40
0.3333333333333333
 40
1.0
 40
1.0
 40
1.0
 40
1.0
 10
43.9006
 20
38.3902
 30
0.0
 10
43.9006
 20
38.3902
 30
0.0
 10
43.7273
 20
38.3823
 30
0.0
 10
43.7273
 20
38.3823
 30
0.0
 10
43.7273
 20
38.3823
 30
0.0
 10
43.7273
 20
38.3823
 30
0.0
 10
43.6017
 20
38.3567
 30
0.0
 10
43.6017
 20
38.3567
 30
0.0
  0
SPLINE
  5
172
330
1F
100
AcDbEntity
  8
Plan 1
370
     9
100
AcDbSpline
210
0.0
220
0.0
230
1.0
 70
    24
 71
     3
 72
     8
 73
     4
 74
     0
 42
0.0000000001
 43
0.0000000001
 12
1.0
 22
0.0
 32
0.0
 13
1.0
 23
0.0
 33
0.0
 40
0.0
 40
0.0
 40
0.0
 40
0.0
 40
1.0
 40
1.0
 40
1.0
 40
1.0
 10
39.666
 20
38.375
 30
0.0
 10
39.666
 20
38.375
 30
0.0
 10
37.795
 20
38.375
 30
0.0
 10
37.795
 20
38.375
 30
0.0
  0
SPLINE
  5
173
330
1F
100
AcDbEntity
  8
Plan 1
370
     9
100
AcDbSpline
210
0.0
220
0.0
230
1.0
 70
     8
 71
     3
 72
    20
 73
    16
 74
     0
 42
0.0000000001
 43
0.0000000001
 12
1.0
 22
0.0
 32
0.0
 13
1.0
 23
0.0
 33
0.0
 40
0.0
 40
0.0
 40
0.0
 40
0.0
 40
0.2
 40
0.2
 40
0.2
 40
0.2
 40
0.4
 40
0.4
 40
0.4
 40
0.4
 40
0.6
 40
0.6
 40
0.6
 40
0.6
 40
1.0
 40
1.0
 40
1.0
 40
1.0
 10
32.5047
 20
37.4343
 30
0.0
 10
32.5047
 20
37.7078
 30
0.0
 10
32.6138
 20
37.9706
 30
0.0
 10
32.8073
 20
38.1639
 30
0.0
 10
32.8073
 20
38.1639
 30
0.0
 10
33.0006
 20
38.3574
 30
0.0
 10
33.2389
 20
38.4541
 30
0.0
 10
33.5124
 20
38.4541
 30
0.0
 10
33.5124
 20
38.4541
 30
0.0
 10
33.5124
 20
38.4541
 30
0.0
 10
33.6706
 20
38.4306
 30
0.0
 10
33.6706
 20
38.4306
 30
0.0
 10
33.6706
 20
38.4306
 30
0.0
 10
33.6706
 20
38.4306
 30
0.0
 10
33.8595
 20
38.3695
 30
0.0
 10
33.8595
 20
38.3695
 30
0.0
  0
SPLINE
  5
174
330
1F
100
AcDbEntity
  8
Plan 1
370
     9
100
AcDbSpline
210
0.0
220
0.0
230
1.0
 70
    11
 71
     3
 72
    20
 73
    16
 74
     0
 42
0.0000000001
 43
0.0000000001
 12
1.0
 22
0.0
 32
0.0
 13
1.0
 23
0.0
 33
0.0
 40
0.0
 40
0.0
 40
0.0
 40
0.0
 40
0.2
 40
0.2
 40
0.2
 40
0.2
 40
0.4
 40
0.4
 40
0.4
 40
0.4
 40
0.6
 40
0.6
 40
0.6
 40
0.6
 40
1.0
 40
1.0
 40
1.0
 40
1.0
 10
43.86
 20
27.38
 30
0.0
 10
43.86
 20
27.4482
 30
0.0
 10
43.8047
 20
27.5036
 30
0.0
 10
43.7363
 20
27.5036
 30
0.0
 10
43.7363
 20
27.5036
 30
0.0
 10
43.6682
 20
27.5036
 30
0.0
 10
43.6128
 20
27.4482
 30
0.0
 10
43.6128
 20
27.38
 30
0.0
 10
43.6128
 20
27.38
 30
0.0
 10
43.6128
 20
27.3117
 30
0.0
 10
43.6682
 20
27.2564
 30
0.0
 10
43.7363
 20
27.2564
 30
0.0
 10
43.7363
 20
27.2564
 30
0.0
 10
43.8047
 20
27.2564
 30
0.0
 10
43.86
 20
27.3117
 30
0.0
 10
43.86
 20
27.38
 30
0.0
  0
SPLINE
  5
175
330
1F
100
AcDbEntity
  8
Plan 1
370
     9
100
AcDbSpline
210
0.0
220
0.0
230
1.0
 70
    11
 71
     3
 72
    20
 73
    16
 74
     0
 42
0.0000000001
 43
0.0000000001
 12
1.0
 22
0.0
 32
0.0
 13
1.0
 23
0.0
 33
0.0
 40
0.0
 40
0.0
 40
0.0
 40
0.0
 40
0.2
 40
0.2
 40
0.2
 40
0.2
 40
0.4
 40
0.4
 40
0.4
 40
0.4
 40
0.6
 40
0.6
 40
0.6
 40
0.6
 40
1.0
 40
1.0
 40
1.0
 40
1.0
 10
43.8395
 20
37.368
 30
0.0
 10
43.8395
 20
37.4364
 30
0.0
 10
43.784
 20
37.4918
 30
0.0
 10
43.7158
 20
37.4918
 30
0.0
 10
43.7158
 20
37.4918
 30
0.0
 10
43.6474
 20
37.4918
 30
0.0
 10
43.592
 20
37.4364
 30
0.0
 10
43.592
 20
37.368
 30
0.0
 10
43.592
 20
37.368
 30
0.0
 10
43.592
 20
37.2998
 30
0.0
 10
43.6474
 20
37.2444
 30
0.0
 10
43.7158
 20
37.2444
 30
0.0
 10
43.7158
 20
37.2444
 30
0.0
 10
43.784
 20
37.2444
 30
0.0
 10
43.8395
 20
37.2998
 30
0.0
 10
43.8395
 20
37.368
 30
0.0
  0
SPLINE
  5
176
330
1F
100
AcDbEntity
  8
Plan 1
370
     9
100
AcDbSpline
210
0.0
220
0.0
230
1.0
 70
     8
 71
     3
 72
     8
 73
     4
 74
     0
 42
0.0000000001
 43
0.0000000001
 12
1.0
 22
0.0
 32
0.0
 13
1.0
 23
0.0
 33
0.0
 40
0.0
 40
0.0
 40
0.0
 40
0.0
 40
1.0
 40
1.0
 40
1.0
 40
1.0
 10
36.9713
 20
38.2225
 30
0.0
 10
37.2345
 20
38.3392
 30
0.0
 10
37.5193
 20
38.3994
 30
0.0
 10
37.8072
 20
38.3994
 30
0.0
  0
SPLINE
  5
177
330
1F
100
AcDbEntity
  8
Plan 1
370
     9
100
AcDbSpline
210
0.0
220
0.0
230
1.0
 70
     8
 71
     3
 72
     8
 73
     4
 74
     0
 42
0.0000000001
 43
0.0000000001
 12
1.0
 22
0.0
 32
0.0
 13
1.0
 23
0.0
 33
0.0
 40
0.0
 40
0.0
 40
0.0
 40
0.0
 40
1.0
 40
1.0
 40
1.0
 40
1.0
 10
36.9713
 20
38.2225
 30
0.0
 10
35.9593
 20
37.7742
 30
0.0
 10
34.7936
 20
37.8158
 30
0.0
 10
33.8385
 20
38.3751
 30
0.0
  0
SPLINE
  5
178
330
1F
100
AcDbEntity
  8
Plan 1
370
     9
100
AcDbSpline
210
0.0
220
0.0
230
1.0
 70
     8
 71
     3
 72
     8
 73
     4
 74
     0
 42
0.0000000001
 43
0.0000000001
 12
1.0
 22
0.0
 32
0.0
 13
1.0
 23
0.0
 33
0.0
 40
0.0
 40
0.0
 40
0.0
 40
0.0
 40
1.0
 40
1.0
 40
1.0
 40
1.0
 10
32.8374
 20
36.0673
 30
0.0
 10
32.6438
 20
36.4409
 30
0.0
 10
32.5345
 20
37.0997
 30
0.0
 10
32.5043
 20
37.5199
 30
0.0
  0
SPLINE
  5
179
330
1F
100
AcDbEntity
  8
Plan 1
370
     9
100
AcDbSpline
210
0.0
220
0.0
230
1.0
 70
     8
 71
     3
 72
     8
 73
     4
 74
     0
 42
0.0000000001
 43
0.0000000001
 12
1.0
 22
0.0
 32
0.0
 13
1.0
 23
0.0
 33
0.0
 40
0.0
 40
0.0
 40
0.0
 40
0.0
 40
1.0
 40
1.0
 40
1.0
 40
1.0
 10
32.547
 20
32.4657
 30
0.0
 10
32.547
 20
32.8289
 30
0.0
 10
32.6427
 20
33.1853
 30
0.0
 10
32.8244
 20
33.4996
 30
0.0
  0
SPLINE
  5
17A
330
1F
100
AcDbEntity
  8
Plan 1
370
     9
100
AcDbSpline
210
0.0
220
0.0
230
1.0
 70
    24
 71
     3
 72
     8
 73
     4
 74
     0
 42
0.0000000001
 43
0.0000000001
 12
1.0
 22
0.0
 32
0.0
 13
1.0
 23
0.0
 33
0.0
 40
0.0
 40
0.0
 40
0.0
 40
0.0
 40
1.0
 40
1.0
 40
1.0
 40
1.0
 10
32.547
 20
32.2651
 30
0.0
 10
32.547
 20
32.2651
 30
0.0
 10
32.547
 20
32.4657
 30
0.0
 10
32.547
 20
32.4657
 30
0.0
  0
SPLINE
  5
17B
330
1F
100
AcDbEntity
  8
Plan 1
370
     9
100
AcDbSpline
210
0.0
220
0.0
230
1.0
 70
     8
 71
     3
 72
    12
 73
     8
 74
     0
 42
0.0000000001
 43
0.0000000001
 12
1.0
 22
0.0
 32
0.0
 13
1.0
 23
0.0
 33
0.0
 40
0.0
 40
0.0
 40
0.0
 40
0.0
 40
0.3333333333333333
 40
0.3333333333333333
 40
0.3333333333333333
 40
0.3333333333333333
 40
1.0
 40
1.0
 40
1.0
 40
1.0
 10
34.3682
 20
26.3767
 30
0.0
 10
34.2227
 20
26.2834
 30
0.0
 10
34.0266
 20
26.1706
 30
0.0
 10
33.8665
 20
26.0917
 30
0.0
 10
33.8665
 20
26.0917
 30
0.0
 10
33.7006
 20
26.01
 30
0.0
 10
33.4934
 20
25.9582
 30
0.0
 10
33.4998
 20
25.9962
 30
0.0
  0
SPLINE
  5
17C
330
1F
100
AcDbEntity
  8
Plan 1
370
     9
100
AcDbSpline
210
0.0
220
0.0
230
1.0
 70
     8
 71
     3
 72
     8
 73
     4
 74
     0
 42
0.0000000001
 43
0.0000000001
 12
1.0
 22
0.0
 32
0.0
 13
1.0
 23
0.0
 33
0.0
 40
0.0
 40
0.0
 40
0.0
 40
0.0
 40
1.0
 40
1.0
 40
1.0
 40
1.0
 10
34.3682
 20
26.3767
 30
0.0
 10
35.2285
 20
26.9293
 30
0.0
 10
36.3271
 20
26.9478
 30
0.0
 10
37.2055
 20
26.425
 30
0.0
  0
SPLINE
  5
17D
330
1F
100
AcDbEntity
  8
Plan 1
370
     9
100
AcDbSpline
210
0.0
220
0.0
230
1.0
 70
     8
 71
     3
 72
     8
 73
     4
 74
     0
 42
0.0000000001
 43
0.0000000001
 12
1.0
 22
0.0
 32
0.0
 13
1.0
 23
0.0
 33
0.0
 40
0.0
 40
0.0
 40
0.0
 40
0.0
 40
1.0
 40
1.0
 40
1.0
 40
1.0
 10
32.813
 20
36.1161
 30
0.0
 10
33.2488
 20
35.2753
 30
0.0
 10
33.2987
 20
34.3192
 30
0.0
 10
32.8244
 20
33.4996
 30
0.0
  0
SPLINE
  5
17E
330
1F
100
AcDbEntity
  8
Plan 1
370
     9
100
AcDbSpline
210
0.0
220
0.0
230
1.0
 70
     8
 71
     3
 72
     8
 73
     4
 74
     0
 42
0.0000000001
 43
0.0000000001
 12
1.0
 22
0.0
 32
0.0
 13
1.0
 23
0.0
 33
0.0
 40
0.0
 40
0.0
 40
0.0
 40
0.0
 40
1.0
 40
1.0
 40
1.0
 40
1.0
 10
38.7849
 20
25.7647
 30
0.0
 10
38.3246
 20
25.6972
 30
0.0
 10
37.7139
 20
26.0006
 30
0.0
 10
37.1934
 20
26.4372
 30
0.0
  0
SPLINE
  5
17F
330
1F
100
AcDbEntity
  8
Plan 1
370
     9
100
AcDbSpline
210
0.0
220
0.0
230
1.0
 70
    11
 71
     3
 72
    20
 73
    16
 74
     0
 42
0.0000000001
 43
0.0000000001
 12
1.0
 22
0.0
 32
0.0
 13
1.0
 23
0.0
 33
0.0
 40
0.0
 40
0.0
 40
0.0
 40
0.0
 40
0.2
 40
0.2
 40
0.2
 40
0.2
 40
0.4
 40
0.4
 40
0.4
 40
0.4
 40
0.6
 40
0.6
 40
0.6
 40
0.6
 40
1.0
 40
1.0
 40
1.0
 40
1.0
 10
33.6133
 20
27.4044
 30
0.0
 10
33.6133
 20
27.4728
 30
0.0
 10
33.6687
 20
27.5282
 30
0.0
 10
33.7371
 20
27.5282
 30
0.0
 10
33.7371
 20
27.5282
 30
0.0
 10
33.8052
 20
27.5282
 30
0.0
 10
33.8606
 20
27.4728
 30
0.0
 10
33.8606
 20
27.4044
 30
0.0
 10
33.8606
 20
27.4044
 30
0.0
 10
33.8606
 20
27.3363
 30
0.0
 10
33.8052
 20
27.281
 30
0.0
 10
33.7371
 20
27.281
 30
0.0
 10
33.7371
 20
27.281
 30
0.0
 10
33.6687
 20
27.281
 30
0.0
 10
33.6133
 20
27.3363
 30
0.0
 10
33.6133
 20
27.4044
 30
0.0
  0
SPLINE
  5
180
330
1F
100
AcDbEntity
  8
Plan 1
370
     9
100
AcDbSpline
210
0.0
220
0.0
230
1.0
 70
    11
 71
     3
 72
    20
 73
    16
 74
     0
 42
0.0000000001
 43
0.0000000001
 12
1.0
 22
0.0
 32
0.0
 13
1.0
 23
0.0
 33
0.0
 40
0.0
 40
0.0
 40
0.0
 40
0.0
 40
0.2
 40
0.2
 40
0.2
 40
0.2
 40
0.4
 40
0.4
 40
0.4
 40
0.4
 40
0.6
 40
0.6
 40
0.6
 40
0.6
 40
1.0
 40
1.0
 40
1.0
 40
1.0
 10
33.6339
 20
37.3925
 30
0.0
 10
33.6339
 20
37.4609
 30
0.0
 10
33.6894
 20
37.5163
 30
0.0
 10
33.7576
 20
37.5163
 30
0.0
 10
33.7576
 20
37.5163
 30
0.0
 10
33.8259
 20
37.5163
 30
0.0
 10
33.8814
 20
37.4609
 30
0.0
 10
33.8814
 20
37.3925
 30
0.0
 10
33.8814
 20
37.3925
 30
0.0
 10
33.8814
 20
37.3243
 30
0.0
 10
33.8259
 20
37.2689
 30
0.0
 10
33.7576
 20
37.2689
 30
0.0
 10
33.7576
 20
37.2689
 30
0.0
 10
33.6894
 20
37.2689
 30
0.0
 10
33.6339
 20
37.3243
 30
0.0
 10
33.6339
 20
37.3925
 30
0.0
  0
SPLINE
  5
181
330
1F
100
AcDbEntity
  8
Plan 1
370
     9
100
AcDbSpline
210
0.0
220
0.0
230
1.0
 70
     8
 71
     3
 72
     8
 73
     4
 74
     0
 42
0.0000000001
 43
0.0000000001
 12
1.0
 22
0.0
 32
0.0
 13
1.0
 23
0.0
 33
0.0
 40
0.0
 40
0.0
 40
0.0
 40
0.0
 40
1.0
 40
1.0
 40
1.0
 40
1.0
 10
38.6996
 20
25.7648
 30
0.0
 10
38.9885
 20
25.6972
 30
0.0
 10
39.7456
 20
25.958
 30
0.0
 10
40.2729
 20
26.3944
 30
0.0
  0
ENDSEC
  0
SECTION
  2
OBJECTS
  0
DICTIONARY
  5
C
330
0
100
AcDbDictionary
281
     1
  3
ACAD_GROUP
350
D
  3
ACAD_LAYOUT
350
1A
  3
ACAD_MATERIAL
350
3B
  3
ACAD_MLEADERSTYLE
350
1A3
  3
ACAD_MLINESTYLE
350
17
  3
ACAD_PLOTSETTINGS
350
19
  3
ACAD_PLOTSTYLENAME
350
E
  3
ACAD_TABLESTYLE
350
1A2
  3
ACAD_VISUALSTYLE
350
2A
  0
DICTIONARY
  5
D
102
{ACAD_REACTORS
330
C
102
}
330
C
100
AcDbDictionary
281
     1
  0
DICTIONARY
  5
1A
102
{ACAD_REACTORS
330
C
102
}
330
C
100
AcDbDictionary
281
     1
  3
Layout1
350
1E
  3
Layout2
350
26
  3
Model
350
22
  0
DICTIONARY
  5
3B
102
{ACAD_REACTORS
330
C
102
}
330
C
100
AcDbDictionary
281
     1
  3
ByBlock
350
3D
  3
ByLayer
350
3C
  3
Global
350
3E
  0
DICTIONARY
  5
1A3
102
{ACAD_REACTORS
330
C
102
}
330
C
100
AcDbDictionary
281
     1
  0
DICTIONARY
  5
17
102
{ACAD_REACTORS
330
C
102
}
330
C
100
AcDbDictionary
281
     1
  3
Standard
350
18
  0
DICTIONARY
  5
19
102
{ACAD_REACTORS
330
C
102
}
330
C
100
AcDbDictionary
281
     1
  0
ACDBDICTIONARYWDFLT
  5
E
102
{ACAD_REACTORS
330
C
102
}
330
C
100
AcDbDictionary
281
     1
  3
Normal
350
F
100
AcDbDictionaryWithDefault
340
F
  0
DICTIONARY
  5
1A2
102
{ACAD_REACTORS
330
C
102
}
330
C
100
AcDbDictionary
281
     1
  0
DICTIONARY
  5
2A
102
{ACAD_REACTORS
330
C
102
}
330
C
100
AcDbDictionary
281
     1
  3
2dWireframe
350
2F
  3
3D Hidden
350
31
  3
3dWireframe
350
30
  3
Basic
350
32
  3
Brighten
350
36
  3
ColorChange
350
3A
  3
Conceptual
350
34
  3
Dim
350
35
  3
Facepattern
350
39
  3
Flat
350
2B
  3
FlatWithEdges
350
2C
  3
Gouraud
350
2D
  3
GouraudWithEdges
350
2E
  3
Linepattern
350
38
  3
Realistic
350
33
  3
Thicken
350
37
  0
LAYOUT
  5
1E
102
{ACAD_REACTORS
330
1A
102
}
330
1A
100
AcDbPlotSettings
  1

  2
none_device
  4

  6

 40
0.0
 41
0.0
 42
0.0
 43
0.0
 44
0.0
 45
0.0
 46
0.0
 47
0.0
 48
0.0
 49
0.0
140
0.0
141
0.0
142
1.0
143
1.0
 70
   688
 72
     0
 73
     0
 74
     5
  7

 75
    16
 76
     0
 77
     2
 78
   300
147
1.0
148
0.0
149
0.0
100
AcDbLayout
  1
Layout1
 70
     1
 71
     1
 10
0.0
 20
0.0
 11
12.0
 21
9.0
 12
0.0
 22
0.0
 32
0.0
 14
1.000000000000000E+20
 24
1.000000000000000E+20
 34
1.000000000000000E+20
 15
-1.000000000000000E+20
 25
-1.000000000000000E+20
 35
-1.000000000000000E+20
146
0.0
 13
0.0
 23
0.0
 33
0.0
 16
1.0
 26
0.0
 36
0.0
 17
0.0
 27
1.0
 37
0.0
 76
     0
330
1B
  0
LAYOUT
  5
26
102
{ACAD_REACTORS
330
1A
102
}
330
1A
100
AcDbPlotSettings
  1

  2
none_device
  4

  6

 40
0.0
 41
0.0
 42
0.0
 43
0.0
 44
0.0
 45
0.0
 46
0.0
 47
0.0
 48
0.0
 49
0.0
140
0.0
141
0.0
142
1.0
143
1.0
 70
   688
 72
     0
 73
     0
 74
     5
  7

 75
    16
 76
     0
 77
     2
 78
   300
147
1.0
148
0.0
149
0.0
100
AcDbLayout
  1
Layout2
 70
     1
 71
     2
 10
0.0
 20
0.0
 11
0.0
 21
0.0
 12
0.0
 22
0.0
 32
0.0
 14
0.0
 24
0.0
 34
0.0
 15
0.0
 25
0.0
 35
0.0
146
0.0
 13
0.0
 23
0.0
 33
0.0
 16
1.0
 26
0.0
 36
0.0
 17
0.0
 27
1.0
 37
0.0
 76
     0
330
23
  0
LAYOUT
  5
22
102
{ACAD_REACTORS
330
1A
102
}
330
1A
100
AcDbPlotSettings
  1

  2
none_device
  4

  6

 40
0.0
 41
0.0
 42
0.0
 43
0.0
 44
0.0
 45
0.0
 46
0.0
 47
0.0
 48
0.0
 49
0.0
140
0.0
141
0.0
142
1.0
143
1.0
 70
  1712
 72
     0
 73
     0
 74
     0
  7

 75
     0
 76
     0
 77
     2
 78
   300
147
1.0
148
0.0
149
0.0
100
AcDbLayout
  1
Model
 70
     1
 71
     0
 10
0.0
 20
0.0
 11
12.0
 21
9.0
 12
0.0
 22
0.0
 32
0.0
 14
-131.358
 24
-98.0294
 34
0.0
 15
130.3382
 25
100.1668
 35
0.0
146
0.0
 13
0.0
 23
0.0
 33
0.0
 16
1.0
 26
0.0
 36
0.0
 17
0.0
 27
1.0
 37
0.0
 76
     0
330
1F
331
29
  0
MATERIAL
  5
3D
102
{ACAD_REACTORS
330
3B
102
}
330
3B
100
AcDbMaterial
  1
ByBlock
 72
     1
 94
      127
  0
MATERIAL
  5
3C
102
{ACAD_REACTORS
330
3B
102
}
330
3B
100
AcDbMaterial
  1
ByLayer
 72
     1
 94
      127
  0
MATERIAL
  5
3E
102
{ACAD_REACTORS
330
3B
102
}
330
3B
100
AcDbMaterial
  1
Global
 72
     1
 94
      127
  0
MLINESTYLE
  5
18
102
{ACAD_REACTORS
330
17
102
}
330
17
100
AcDbMlineStyle
  2
Standard
 70
     0
  3

 62
   256
 51
90.0
 52
90.0
 71
     2
 49
0.5
 62
   256
  6
BYLAYER
 49
-0.5
 62
   256
  6
BYLAYER
  0
ACDBPLACEHOLDER
  5
F
102
{ACAD_REACTORS
330
E
102
}
330
E
  0
VISUALSTYLE
  5
2F
102
{ACAD_REACTORS
330
2A
102
}
102
{ACAD_XDICTIONARY
360
18A
102
}
330
2A
100
AcDbVisualStyle
  2
2dWireframe
 70
     4
 71
     0
 72
     2
 73
     0
 90
        0
 40
-0.6
 41
-30.0
 62
     5
 63
     7
421
 16777215
 74
     1
 91
        4
 64
     7
 65
   257
 75
     1
175
     1
 42
1.0
 92
        0
 66
   257
 43
1.0
 76
     1
 77
     6
 78
     2
 67
     7
 79
     5
170
     0
171
     0
290
     0
174
     0
 93
        1
 44
0.0
173
     0
291
     0
 45
0.0
  0
VISUALSTYLE
  5
31
102
{ACAD_REACTORS
330
2A
102
}
102
{ACAD_XDICTIONARY
360
18E
102
}
330
2A
100
AcDbVisualStyle
  2
3D Hidden
 70
     6
 71
     1
 72
     2
 73
     2
 90
        0
 40
-0.6
 41
-30.0
 62
     5
 63
     7
421
 16777215
 74
     2
 91
        2
 64
     7
 65
   257
 75
     2
175
     1
 42
40.0
 92
        0
 66
   257
 43
1.0
 76
     1
 77
     6
 78
     2
 67
     7
 79
     3
170
     0
171
     0
290
     0
174
     0
 93
        1
 44
0.0
173
     0
291
     0
 45
0.0
  0
VISUALSTYLE
  5
30
102
{ACAD_REACTORS
330
2A
102
}
102
{ACAD_XDICTIONARY
360
18C
102
}
330
2A
100
AcDbVisualStyle
  2
3dWireframe
 70
     5
 71
     0
 72
     2
 73
     0
 90
        0
 40
-0.6
 41
-30.0
 62
     5
 63
     7
421
 16777215
 74
     1
 91
        4
 64
     7
 65
   257
 75
     1
175
     1
 42
1.0
 92
        0
 66
   257
 43
1.0
 76
     1
 77
     6
 78
     2
 67
     7
 79
     5
170
     0
171
     0
290
     0
174
     0
 93
        1
 44
0.0
173
     0
291
     0
 45
0.0
  0
VISUALSTYLE
  5
32
102
{ACAD_REACTORS
330
2A
102
}
102
{ACAD_XDICTIONARY
360
190
102
}
330
2A
100
AcDbVisualStyle
  2
Basic
 70
     7
 71
     1
 72
     0
 73
     1
 90
        0
 40
-0.6
 41
-30.0
 62
     5
 63
     7
421
 16777215
 74
     0
 91
        4
 64
     7
 65
   257
 75
     1
175
     1
 42
1.0
 92
        8
 66
     7
 43
1.0
 76
     1
 77
     6
 78
     2
 67
     7
 79
     5
170
     0
171
     0
290
     0
174
     0
 93
        1
 44
0.0
173
     0
291
     1
 45
0.0
  0
VISUALSTYLE
  5
36
102
{ACAD_REACTORS
330
2A
102
}
102
{ACAD_XDICTIONARY
360
198
102
}
330
2A
100
AcDbVisualStyle
  2
Brighten
 70
    12
 71
     2
 72
     2
 73
     0
 90
        0
 40
-0.6
 41
-30.0
 62
     5
 63
     7
421
 16777215
 74
     1
 91
        4
 64
     7
 65
   257
 75
     1
175
     1
 42
1.0
 92
        8
 66
     7
 43
1.0
 76
     1
 77
     6
 78
     2
 67
     7
 79
     5
170
     0
171
     0
290
     0
174
     0
 93
        1
 44
50.0
173
     0
291
     1
 45
0.0
  0
VISUALSTYLE
  5
3A
102
{ACAD_REACTORS
330
2A
102
}
102
{ACAD_XDICTIONARY
360
1A0
102
}
330
2A
100
AcDbVisualStyle
  2
ColorChange
 70
    16
 71
     2
 72
     2
 73
     3
 90
        0
 40
-0.6
 41
-30.0
 62
     5
 63
     8
421
  8421504
 74
     1
 91
        4
 64
     7
 65
   257
 75
     1
175
     1
 42
1.0
 92
        8
 66
     8
424
  8421504
 43
1.0
 76
     1
 77
     6
 78
     2
 67
     7
 79
     5
170
     0
171
     0
290
     0
174
     0
 93
        1
 44
0.0
173
     0
291
     1
 45
0.0
  0
VISUALSTYLE
  5
34
102
{ACAD_REACTORS
330
2A
102
}
102
{ACAD_XDICTIONARY
360
194
102
}
330
2A
100
AcDbVisualStyle
  2
Conceptual
 70
     9
 71
     3
 72
     2
 73
     0
 90
        0
 40
-0.6
 41
-30.0
 62
     5
 63
     7
421
 16777215
 74
     2
 91
        2
 64
     7
 65
   257
 75
     1
175
     1
 42
40.0
 92
        8
 66
     7
 43
1.0
 76
     1
 77
     6
 78
     2
 67
     7
 79
     3
170
     0
171
     0
290
     0
174
     0
 93
        1
 44
0.0
173
     0
291
     0
 45
0.0
  0
VISUALSTYLE
  5
35
102
{ACAD_REACTORS
330
2A
102
}
102
{ACAD_XDICTIONARY
360
196
102
}
330
2A
100
AcDbVisualStyle
  2
Dim
 70
    11
 71
     2
 72
     2
 73
     0
 90
        0
 40
-0.6
 41
-30.0
 62
     5
 63
     7
421
 16777215
 74
     1
 91
        4
 64
     7
 65
   257
 75
     1
175
     1
 42
1.0
 92
        8
 66
     7
 43
1.0
 76
     1
 77
     6
 78
     2
 67
     7
 79
     5
170
     0
171
     0
290
     0
174
     0
 93
        1
 44
-50.0
173
     0
291
     1
 45
0.0
  0
VISUALSTYLE
  5
39
102
{ACAD_REACTORS
330
2A
102
}
102
{ACAD_XDICTIONARY
360
19E
102
}
330
2A
100
AcDbVisualStyle
  2
Facepattern
 70
    15
 71
     2
 72
     2
 73
     0
 90
        0
 40
-0.6
 41
-30.0
 62
     5
 63
     7
421
 16777215
 74
     1
 91
        4
 64
     7
 65
   257
 75
     1
175
     1
 42
1.0
 92
        8
 66
     7
 43
1.0
 76
     1
 77
     6
 78
     2
 67
     7
 79
     5
170
     0
171
     0
290
     0
174
     0
 93
        1
 44
0.0
173
     0
291
     1
 45
0.0
  0
VISUALSTYLE
  5
2B
102
{ACAD_REACTORS
330
2A
102
}
102
{ACAD_XDICTIONARY
360
182
102
}
330
2A
100
AcDbVisualStyle
  2
Flat
 70
     0
 71
     2
 72
     1
 73
     1
 90
        2
 40
-0.6
 41
30.0
 62
     5
 63
     7
421
 16777215
 74
     0
 91
        4
 64
     7
 65
   257
 75
     1
175
     1
 42
1.0
 92
        8
 66
     7
 43
1.0
 76
     1
 77
     6
 78
     2
 67
     7
 79
     5
170
     0
171
     0
290
     0
174
     0
 93
       13
 44
0.0
173
     0
291
     1
 45
0.0
  0
VISUALSTYLE
  5
2C
102
{ACAD_REACTORS
330
2A
102
}
102
{ACAD_XDICTIONARY
360
184
102
}
330
2A
100
AcDbVisualStyle
  2
FlatWithEdges
 70
     1
 71
     2
 72
     1
 73
     1
 90
        2
 40
-0.6
 41
30.0
 62
     5
 63
     7
421
 16777215
 74
     1
 91
        4
 64
     7
 65
   257
 75
     1
175
     1
 42
1.0
 92
        0
 66
   257
 43
1.0
 76
     1
 77
     6
 78
     2
 67
     7
 79
     5
170
     0
171
     0
290
     0
174
     0
 93
       13
 44
0.0
173
     0
291
     1
 45
0.0
  0
VISUALSTYLE
  5
2D
102
{ACAD_REACTORS
330
2A
102
}
102
{ACAD_XDICTIONARY
360
186
102
}
330
2A
100
AcDbVisualStyle
  2
Gouraud
 70
     2
 71
     2
 72
     2
 73
     1
 90
        2
 40
-0.6
 41
30.0
 62
     5
 63
     7
421
 16777215
 74
     0
 91
        4
 64
     7
 65
   257
 75
     1
175
     1
 42
1.0
 92
        0
 66
     7
 43
1.0
 76
     1
 77
     6
 78
     2
 67
     7
 79
     5
170
     0
171
     0
290
     0
174
     0
 93
       13
 44
0.0
173
     0
291
     1
 45
0.0
  0
VISUALSTYLE
  5
2E
102
{ACAD_REACTORS
330
2A
102
}
102
{ACAD_XDICTIONARY
360
188
102
}
330
2A
100
AcDbVisualStyle
  2
GouraudWithEdges
 70
     3
 71
     2
 72
     2
 73
     1
 90
        2
 40
-0.6
 41
30.0
 62
     5
 63
     7
421
 16777215
 74
     1
 91
        4
 64
     7
 65
   257
 75
     1
175
     1
 42
1.0
 92
        0
 66
   257
 43
1.0
 76
     1
 77
     6
 78
     2
 67
     7
 79
     5
170
     0
171
     0
290
     0
174
     0
 93
       13
 44
0.0
173
     0
291
     1
 45
0.0
  0
VISUALSTYLE
  5
38
102
{ACAD_REACTORS
330
2A
102
}
102
{ACAD_XDICTIONARY
360
19C
102
}
330
2A
100
AcDbVisualStyle
  2
Linepattern
 70
    14
 71
     2
 72
     2
 73
     0
 90
        0
 40
-0.6
 41
-30.0
 62
     5
 63
     7
421
 16777215
 74
     1
 91
        4
 64
     7
 65
   257
 75
     7
175
     7
 42
1.0
 92
        8
 66
     7
 43
1.0
 76
     1
 77
     6
 78
     2
 67
     7
 79
     5
170
     0
171
     0
290
     0
174
     0
 93
        1
 44
0.0
173
     0
291
     1
 45
0.0
  0
VISUALSTYLE
  5
33
102
{ACAD_REACTORS
330
2A
102
}
102
{ACAD_XDICTIONARY
360
192
102
}
330
2A
100
AcDbVisualStyle
  2
Realistic
 70
     8
 71
     2
 72
     2
 73
     0
 90
        0
 40
-0.6
 41
-30.0
 62
     5
 63
     7
421
 16777215
 74
     1
 91
        0
 64
     7
 65
   257
 75
     1
175
     1
 42
1.0
 92
        8
 66
     8
424
  7895160
 43
1.0
 76
     1
 77
     6
 78
     2
 67
     7
 79
     5
170
     0
171
     0
290
     0
174
     0
 93
       13
 44
0.0
173
     0
291
     0
 45
0.0
  0
VISUALSTYLE
  5
37
102
{ACAD_REACTORS
330
2A
102
}
102
{ACAD_XDICTIONARY
360
19A
102
}
330
2A
100
AcDbVisualStyle
  2
Thicken
 70
    13
 71
     2
 72
     2
 73
     0
 90
        0
 40
-0.6
 41
-30.0
 62
     5
 63
     7
421
 16777215
 74
     1
 91
        4
 64
     7
 65
   257
 75
     1
175
     1
 42
1.0
 92
       12
 66
     7
 43
1.0
 76
     1
 77
     6
 78
     2
 67
     7
 79
     5
170
     0
171
     0
290
     0
174
     0
 93
        1
 44
0.0
173
     0
291
     1
 45
0.0
  0
DICTIONARY
  5
18A
330
2F
100
AcDbDictionary
280
     1
281
     1
  3
ACAD_XREC_ROUNDTRIP
360
18B
  0
DICTIONARY
  5
18E
330
31
100
AcDbDictionary
280
     1
281
     1
  3
ACAD_XREC_ROUNDTRIP
360
18F
  0
DICTIONARY
  5
18C
330
30
100
AcDbDictionary
280
     1
281
     1
  3
ACAD_XREC_ROUNDTRIP
360
18D
  0
DICTIONARY
  5
190
330
32
100
AcDbDictionary
280
     1
281
     1
  3
ACAD_XREC_ROUNDTRIP
360
191
  0
DICTIONARY
  5
198
330
36
100
AcDbDictionary
280
     1
281
     1
  3
ACAD_XREC_ROUNDTRIP
360
199
  0
DICTIONARY
  5
1A0
330
3A
100
AcDbDictionary
280
     1
281
     1
  3
ACAD_XREC_ROUNDTRIP
360
1A1
  0
DICTIONARY
  5
194
330
34
100
AcDbDictionary
280
     1
281
     1
  3
ACAD_XREC_ROUNDTRIP
360
195
  0
DICTIONARY
  5
196
330
35
100
AcDbDictionary
280
     1
281
     1
  3
ACAD_XREC_ROUNDTRIP
360
197
  0
DICTIONARY
  5
19E
330
39
100
AcDbDictionary
280
     1
281
     1
  3
ACAD_XREC_ROUNDTRIP
360
19F
  0
DICTIONARY
  5
182
330
2B
100
AcDbDictionary
280
     1
281
     1
  3
ACAD_XREC_ROUNDTRIP
360
183
  0
DICTIONARY
  5
184
330
2C
100
AcDbDictionary
280
     1
281
     1
  3
ACAD_XREC_ROUNDTRIP
360
185
  0
DICTIONARY
  5
186
330
2D
100
AcDbDictionary
280
     1
281
     1
  3
ACAD_XREC_ROUNDTRIP
360
187
  0
DICTIONARY
  5
188
330
2E
100
AcDbDictionary
280
     1
281
     1
  3
ACAD_XREC_ROUNDTRIP
360
189
  0
DICTIONARY
  5
19C
330
38
100
AcDbDictionary
280
     1
281
     1
  3
ACAD_XREC_ROUNDTRIP
360
19D
  0
DICTIONARY
  5
192
330
33
100
AcDbDictionary
280
     1
281
     1
  3
ACAD_XREC_ROUNDTRIP
360
193
  0
DICTIONARY
  5
19A
330
37
100
AcDbDictionary
280
     1
281
     1
  3
ACAD_XREC_ROUNDTRIP
360
19B
  0
XRECORD
  5
18B
102
{ACAD_REACTORS
330
18A
102
}
330
18A
100
AcDbXrecord
280
     1
102
RTVSPropertyOp0
 70
     1
102
RTVSPropertyOp1
 70
     1
102
RTVSPropertyOp2
 70
     1
102
RTVSPropertyOp3
 70
     1
102
RTVSPropertyOp4
 70
     1
102
RTVSPropertyOp5
 70
     1
102
RTVSPropertyOp6
 70
     1
102
RTVSPropertyOp7
 70
     1
102
RTVSPropertyOp8
 70
     1
102
RTVSPropertyOp9
 70
     1
102
RTVSPropertyOp10
 70
     1
102
RTVSPropertyOp11
 70
     1
102
RTVSPropertyOp12
 70
     1
102
RTVSPropertyOp13
 70
     1
102
RTVSPropertyOp14
 70
     1
102
RTVSPropertyOp15
 70
     1
102
RTVSPropertyOp16
 70
     1
102
RTVSPropertyOp17
 70
     1
102
RTVSPropertyOp18
 70
     1
102
RTVSPropertyOp19
 70
     1
102
RTVSPropertyOp20
 70
     1
102
RTVSPropertyOp21
 70
     1
102
RTVSPropertyOp22
 70
     1
102
RTVSPropertyOp23
 70
     1
102
RTVSPropertyOp24
 70
     1
102
RTVSPropertyOp25
 70
     1
102
RTVSPropertyOp26
 70
     1
102
RTVSPropertyOp27
 70
     1
102
RTVSPropertyOp28
 70
     1
102
RTVSPropertyOp29
 70
     1
102
RTVSPropertyOp30
 70
     1
102
RTVSPropertyOp31
 70
     1
102
RTVSPropertyOp32
 70
     1
  0
XRECORD
  5
18F
102
{ACAD_REACTORS
330
18E
102
}
330
18E
100
AcDbXrecord
280
     1
102
RTVSPropertyOp0
 70
     1
102
RTVSPropertyOp1
 70
     1
102
RTVSPropertyOp2
 70
     1
102
RTVSPropertyOp3
 70
     1
102
RTVSPropertyOp4
 70
     1
102
RTVSPropertyOp5
 70
     1
102
RTVSPropertyOp6
 70
     1
102
RTVSPropertyOp7
 70
     1
102
RTVSPropertyOp8
 70
     1
102
RTVSPropertyOp9
 70
     1
102
RTVSPropertyOp10
 70
     1
102
RTVSPropertyOp11
 70
     1
102
RTVSPropertyOp12
 70
     1
102
RTVSPropertyOp13
 70
     1
102
RTVSPropertyOp14
 70
     1
102
RTVSPropertyOp15
 70
     1
102
RTVSPropertyOp16
 70
     1
102
RTVSPropertyOp17
 70
     1
102
RTVSPropertyOp18
 70
     1
102
RTVSPropertyOp19
 70
     1
102
RTVSPropertyOp20
 70
     1
102
RTVSPropertyOp21
 70
     1
102
RTVSPropertyOp22
 70
     1
102
RTVSPropertyOp23
 70
     1
102
RTVSPropertyOp24
 70
     1
102
RTVSPropertyOp25
 70
     1
102
RTVSPropertyOp26
 70
     1
102
RTVSPropertyOp27
 70
     1
102
RTVSPropertyOp28
 70
     1
102
RTVSPropertyOp29
 70
     1
102
RTVSPropertyOp30
 70
     1
102
RTVSPropertyOp31
 70
     1
102
RTVSPropertyOp32
 70
     1
  0
XRECORD
  5
18D
102
{ACAD_REACTORS
330
18C
102
}
330
18C
100
AcDbXrecord
280
     1
102
RTVSPropertyOp0
 70
     1
102
RTVSPropertyOp1
 70
     1
102
RTVSPropertyOp2
 70
     1
102
RTVSPropertyOp3
 70
     1
102
RTVSPropertyOp4
 70
     1
102
RTVSPropertyOp5
 70
     1
102
RTVSPropertyOp6
 70
     1
102
RTVSPropertyOp7
 70
     1
102
RTVSPropertyOp8
 70
     1
102
RTVSPropertyOp9
 70
     1
102
RTVSPropertyOp10
 70
     1
102
RTVSPropertyOp11
 70
     1
102
RTVSPropertyOp12
 70
     1
102
RTVSPropertyOp13
 70
     1
102
RTVSPropertyOp14
 70
     1
102
RTVSPropertyOp15
 70
     1
102
RTVSPropertyOp16
 70
     1
102
RTVSPropertyOp17
 70
     1
102
RTVSPropertyOp18
 70
     1
102
RTVSPropertyOp19
 70
     1
102
RTVSPropertyOp20
 70
     1
102
RTVSPropertyOp21
 70
     1
102
RTVSPropertyOp22
 70
     1
102
RTVSPropertyOp23
 70
     1
102
RTVSPropertyOp24
 70
     1
102
RTVSPropertyOp25
 70
     1
102
RTVSPropertyOp26
 70
     1
102
RTVSPropertyOp27
 70
     1
102
RTVSPropertyOp28
 70
     1
102
RTVSPropertyOp29
 70
     1
102
RTVSPropertyOp30
 70
     1
102
RTVSPropertyOp31
 70
     1
102
RTVSPropertyOp32
 70
     1
  0
XRECORD
  5
191
102
{ACAD_REACTORS
330
190
102
}
330
190
100
AcDbXrecord
280
     1
102
RTVSPropertyOp0
 70
     1
102
RTVSPropertyOp1
 70
     1
102
RTVSPropertyOp2
 70
     1
102
RTVSPropertyOp3
 70
     1
102
RTVSPropertyOp4
 70
     1
102
RTVSPropertyOp5
 70
     1
102
RTVSPropertyOp6
 70
     1
102
RTVSPropertyOp7
 70
     1
102
RTVSPropertyOp8
 70
     1
102
RTVSPropertyOp9
 70
     1
102
RTVSPropertyOp10
 70
     1
102
RTVSPropertyOp11
 70
     1
102
RTVSPropertyOp12
 70
     1
102
RTVSPropertyOp13
 70
     1
102
RTVSPropertyOp14
 70
     1
102
RTVSPropertyOp15
 70
     1
102
RTVSPropertyOp16
 70
     1
102
RTVSPropertyOp17
 70
     1
102
RTVSPropertyOp18
 70
     1
102
RTVSPropertyOp19
 70
     1
102
RTVSPropertyOp20
 70
     1
102
RTVSPropertyOp21
 70
     1
102
RTVSPropertyOp22
 70
     1
102
RTVSPropertyOp23
 70
     1
102
RTVSPropertyOp24
 70
     1
102
RTVSPropertyOp25
 70
     1
102
RTVSPropertyOp26
 70
     1
102
RTVSPropertyOp27
 70
     1
102
RTVSPropertyOp28
 70
     1
102
RTVSPropertyOp29
 70
     1
102
RTVSPropertyOp30
 70
     1
102
RTVSPropertyOp31
 70
     1
102
RTVSPropertyOp32
 70
     1
  0
XRECORD
  5
199
102
{ACAD_REACTORS
330
198
102
}
330
198
100
AcDbXrecord
280
     1
102
RTVSPropertyOp0
 70
     1
102
RTVSPropertyOp1
 70
     1
102
RTVSPropertyOp2
 70
     1
102
RTVSPropertyOp3
 70
     1
102
RTVSPropertyOp4
 70
     1
102
RTVSPropertyOp5
 70
     1
102
RTVSPropertyOp6
 70
     1
102
RTVSPropertyOp7
 70
     1
102
RTVSPropertyOp8
 70
     1
102
RTVSPropertyOp9
 70
     1
102
RTVSPropertyOp10
 70
     1
102
RTVSPropertyOp11
 70
     1
102
RTVSPropertyOp12
 70
     1
102
RTVSPropertyOp13
 70
     1
102
RTVSPropertyOp14
 70
     1
102
RTVSPropertyOp15
 70
     1
102
RTVSPropertyOp16
 70
     1
102
RTVSPropertyOp17
 70
     1
102
RTVSPropertyOp18
 70
     1
102
RTVSPropertyOp19
 70
     1
102
RTVSPropertyOp20
 70
     1
102
RTVSPropertyOp21
 70
     1
102
RTVSPropertyOp22
 70
     1
102
RTVSPropertyOp23
 70
     1
102
RTVSPropertyOp24
 70
     1
102
RTVSPropertyOp25
 70
     1
102
RTVSPropertyOp26
 70
     1
102
RTVSPropertyOp27
 70
     1
102
RTVSPropertyOp28
 70
     1
102
RTVSPropertyOp29
 70
     1
102
RTVSPropertyOp30
 70
     1
102
RTVSPropertyOp31
 70
     1
102
RTVSPropertyOp32
 70
     1
  0
XRECORD
  5
1A1
102
{ACAD_REACTORS
330
1A0
102
}
330
1A0
100
AcDbXrecord
280
     1
102
RTVSPropertyOp0
 70
     1
102
RTVSPropertyOp1
 70
     1
102
RTVSPropertyOp2
 70
     1
102
RTVSPropertyOp3
 70
     1
102
RTVSPropertyOp4
 70
     1
102
RTVSPropertyOp5
 70
     1
102
RTVSPropertyOp6
 70
     1
102
RTVSPropertyOp7
 70
     1
102
RTVSPropertyOp8
 70
     1
102
RTVSPropertyOp9
 70
     1
102
RTVSPropertyOp10
 70
     1
102
RTVSPropertyOp11
 70
     1
102
RTVSPropertyOp12
 70
     1
102
RTVSPropertyOp13
 70
     1
102
RTVSPropertyOp14
 70
     1
102
RTVSPropertyOp15
 70
     1
102
RTVSPropertyOp16
 70
     1
102
RTVSPropertyOp17
 70
     1
102
RTVSPropertyOp18
 70
     1
102
RTVSPropertyOp19
 70
     1
102
RTVSPropertyOp20
 70
     1
102
RTVSPropertyOp21
 70
     1
102
RTVSPropertyOp22
 70
     1
102
RTVSPropertyOp23
 70
     1
102
RTVSPropertyOp24
 70
     1
102
RTVSPropertyOp25
 70
     1
102
RTVSPropertyOp26
 70
     1
102
RTVSPropertyOp27
 70
     1
102
RTVSPropertyOp28
 70
     1
102
RTVSPropertyOp29
 70
     1
102
RTVSPropertyOp30
 70
     1
102
RTVSPropertyOp31
 70
     1
102
RTVSPropertyOp32
 70
     1
  0
XRECORD
  5
195
102
{ACAD_REACTORS
330
194
102
}
330
194
100
AcDbXrecord
280
     1
102
RTVSPropertyOp0
 70
     1
102
RTVSPropertyOp1
 70
     1
102
RTVSPropertyOp2
 70
     1
102
RTVSPropertyOp3
 70
     1
102
RTVSPropertyOp4
 70
     1
102
RTVSPropertyOp5
 70
     1
102
RTVSPropertyOp6
 70
     1
102
RTVSPropertyOp7
 70
     1
102
RTVSPropertyOp8
 70
     1
102
RTVSPropertyOp9
 70
     1
102
RTVSPropertyOp10
 70
     1
102
RTVSPropertyOp11
 70
     1
102
RTVSPropertyOp12
 70
     1
102
RTVSPropertyOp13
 70
     1
102
RTVSPropertyOp14
 70
     1
102
RTVSPropertyOp15
 70
     1
102
RTVSPropertyOp16
 70
     1
102
RTVSPropertyOp17
 70
     1
102
RTVSPropertyOp18
 70
     1
102
RTVSPropertyOp19
 70
     1
102
RTVSPropertyOp20
 70
     1
102
RTVSPropertyOp21
 70
     1
102
RTVSPropertyOp22
 70
     1
102
RTVSPropertyOp23
 70
     1
102
RTVSPropertyOp24
 70
     1
102
RTVSPropertyOp25
 70
     1
102
RTVSPropertyOp26
 70
     1
102
RTVSPropertyOp27
 70
     1
102
RTVSPropertyOp28
 70
     1
102
RTVSPropertyOp29
 70
     1
102
RTVSPropertyOp30
 70
     1
102
RTVSPropertyOp31
 70
     1
102
RTVSPropertyOp32
 70
     1
  0
XRECORD
  5
197
102
{ACAD_REACTORS
330
196
102
}
330
196
100
AcDbXrecord
280
     1
102
RTVSPropertyOp0
 70
     1
102
RTVSPropertyOp1
 70
     1
102
RTVSPropertyOp2
 70
     1
102
RTVSPropertyOp3
 70
     1
102
RTVSPropertyOp4
 70
     1
102
RTVSPropertyOp5
 70
     1
102
RTVSPropertyOp6
 70
     1
102
RTVSPropertyOp7
 70
     1
102
RTVSPropertyOp8
 70
     1
102
RTVSPropertyOp9
 70
     1
102
RTVSPropertyOp10
 70
     1
102
RTVSPropertyOp11
 70
     1
102
RTVSPropertyOp12
 70
     1
102
RTVSPropertyOp13
 70
     1
102
RTVSPropertyOp14
 70
     1
102
RTVSPropertyOp15
 70
     1
102
RTVSPropertyOp16
 70
     1
102
RTVSPropertyOp17
 70
     1
102
RTVSPropertyOp18
 70
     1
102
RTVSPropertyOp19
 70
     1
102
RTVSPropertyOp20
 70
     1
102
RTVSPropertyOp21
 70
     1
102
RTVSPropertyOp22
 70
     1
102
RTVSPropertyOp23
 70
     1
102
RTVSPropertyOp24
 70
     1
102
RTVSPropertyOp25
 70
     1
102
RTVSPropertyOp26
 70
     1
102
RTVSPropertyOp27
 70
     1
102
RTVSPropertyOp28
 70
     1
102
RTVSPropertyOp29
 70
     1
102
RTVSPropertyOp30
 70
     1
102
RTVSPropertyOp31
 70
     1
102
RTVSPropertyOp32
 70
     1
  0
XRECORD
  5
19F
102
{ACAD_REACTORS
330
19E
102
}
330
19E
100
AcDbXrecord
280
     1
102
RTVSPropertyOp0
 70
     1
102
RTVSPropertyOp1
 70
     1
102
RTVSPropertyOp2
 70
     1
102
RTVSPropertyOp3
 70
     1
102
RTVSPropertyOp4
 70
     1
102
RTVSPropertyOp5
 70
     1
102
RTVSPropertyOp6
 70
     1
102
RTVSPropertyOp7
 70
     1
102
RTVSPropertyOp8
 70
     1
102
RTVSPropertyOp9
 70
     1
102
RTVSPropertyOp10
 70
     1
102
RTVSPropertyOp11
 70
     1
102
RTVSPropertyOp12
 70
     1
102
RTVSPropertyOp13
 70
     1
102
RTVSPropertyOp14
 70
     1
102
RTVSPropertyOp15
 70
     1
102
RTVSPropertyOp16
 70
     1
102
RTVSPropertyOp17
 70
     1
102
RTVSPropertyOp18
 70
     1
102
RTVSPropertyOp19
 70
     1
102
RTVSPropertyOp20
 70
     1
102
RTVSPropertyOp21
 70
     1
102
RTVSPropertyOp22
 70
     1
102
RTVSPropertyOp23
 70
     1
102
RTVSPropertyOp24
 70
     1
102
RTVSPropertyOp25
 70
     1
102
RTVSPropertyOp26
 70
     1
102
RTVSPropertyOp27
 70
     1
102
RTVSPropertyOp28
 70
     1
102
RTVSPropertyOp29
 70
     1
102
RTVSPropertyOp30
 70
     1
102
RTVSPropertyOp31
 70
     1
102
RTVSPropertyOp32
 70
     1
  0
XRECORD
  5
183
102
{ACAD_REACTORS
330
182
102
}
330
182
100
AcDbXrecord
280
     1
102
RTVSPropertyOp0
 70
     1
102
RTVSPropertyOp1
 70
     1
102
RTVSPropertyOp2
 70
     1
102
RTVSPropertyOp3
 70
     1
102
RTVSPropertyOp4
 70
     1
102
RTVSPropertyOp5
 70
     1
102
RTVSPropertyOp6
 70
     1
102
RTVSPropertyOp7
 70
     1
102
RTVSPropertyOp8
 70
     1
102
RTVSPropertyOp9
 70
     1
102
RTVSPropertyOp10
 70
     1
102
RTVSPropertyOp11
 70
     1
102
RTVSPropertyOp12
 70
     1
102
RTVSPropertyOp13
 70
     1
102
RTVSPropertyOp14
 70
     1
102
RTVSPropertyOp15
 70
     1
102
RTVSPropertyOp16
 70
     1
102
RTVSPropertyOp17
 70
     1
102
RTVSPropertyOp18
 70
     1
102
RTVSPropertyOp19
 70
     1
102
RTVSPropertyOp20
 70
     1
102
RTVSPropertyOp21
 70
     1
102
RTVSPropertyOp22
 70
     1
102
RTVSPropertyOp23
 70
     1
102
RTVSPropertyOp24
 70
     1
102
RTVSPropertyOp25
 70
     1
102
RTVSPropertyOp26
 70
     1
102
RTVSPropertyOp27
 70
     1
102
RTVSPropertyOp28
 70
     1
102
RTVSPropertyOp29
 70
     1
102
RTVSPropertyOp30
 70
     1
102
RTVSPropertyOp31
 70
     1
102
RTVSPropertyOp32
 70
     1
  0
XRECORD
  5
185
102
{ACAD_REACTORS
330
184
102
}
330
184
100
AcDbXrecord
280
     1
102
RTVSPropertyOp0
 70
     1
102
RTVSPropertyOp1
 70
     1
102
RTVSPropertyOp2
 70
     1
102
RTVSPropertyOp3
 70
     1
102
RTVSPropertyOp4
 70
     1
102
RTVSPropertyOp5
 70
     1
102
RTVSPropertyOp6
 70
     1
102
RTVSPropertyOp7
 70
     1
102
RTVSPropertyOp8
 70
     1
102
RTVSPropertyOp9
 70
     1
102
RTVSPropertyOp10
 70
     1
102
RTVSPropertyOp11
 70
     1
102
RTVSPropertyOp12
 70
     1
102
RTVSPropertyOp13
 70
     1
102
RTVSPropertyOp14
 70
     1
102
RTVSPropertyOp15
 70
     1
102
RTVSPropertyOp16
 70
     1
102
RTVSPropertyOp17
 70
     1
102
RTVSPropertyOp18
 70
     1
102
RTVSPropertyOp19
 70
     1
102
RTVSPropertyOp20
 70
     1
102
RTVSPropertyOp21
 70
     1
102
RTVSPropertyOp22
 70
     1
102
RTVSPropertyOp23
 70
     1
102
RTVSPropertyOp24
 70
     1
102
RTVSPropertyOp25
 70
     1
102
RTVSPropertyOp26
 70
     1
102
RTVSPropertyOp27
 70
     1
102
RTVSPropertyOp28
 70
     1
102
RTVSPropertyOp29
 70
     1
102
RTVSPropertyOp30
 70
     1
102
RTVSPropertyOp31
 70
     1
102
RTVSPropertyOp32
 70
     1
  0
XRECORD
  5
187
102
{ACAD_REACTORS
330
186
102
}
330
186
100
AcDbXrecord
280
     1
102
RTVSPropertyOp0
 70
     1
102
RTVSPropertyOp1
 70
     1
102
RTVSPropertyOp2
 70
     1
102
RTVSPropertyOp3
 70
     1
102
RTVSPropertyOp4
 70
     1
102
RTVSPropertyOp5
 70
     1
102
RTVSPropertyOp6
 70
     1
102
RTVSPropertyOp7
 70
     1
102
RTVSPropertyOp8
 70
     1
102
RTVSPropertyOp9
 70
     1
102
RTVSPropertyOp10
 70
     1
102
RTVSPropertyOp11
 70
     1
102
RTVSPropertyOp12
 70
     1
102
RTVSPropertyOp13
 70
     1
102
RTVSPropertyOp14
 70
     1
102
RTVSPropertyOp15
 70
     1
102
RTVSPropertyOp16
 70
     1
102
RTVSPropertyOp17
 70
     1
102
RTVSPropertyOp18
 70
     1
102
RTVSPropertyOp19
 70
     1
102
RTVSPropertyOp20
 70
     1
102
RTVSPropertyOp21
 70
     1
102
RTVSPropertyOp22
 70
     1
102
RTVSPropertyOp23
 70
     1
102
RTVSPropertyOp24
 70
     1
102
RTVSPropertyOp25
 70
     1
102
RTVSPropertyOp26
 70
     1
102
RTVSPropertyOp27
 70
     1
102
RTVSPropertyOp28
 70
     1
102
RTVSPropertyOp29
 70
     1
102
RTVSPropertyOp30
 70
     1
102
RTVSPropertyOp31
 70
     1
102
RTVSPropertyOp32
 70
     1
  0
XRECORD
  5
189
102
{ACAD_REACTORS
330
188
102
}
330
188
100
AcDbXrecord
280
     1
102
RTVSPropertyOp0
 70
     1
102
RTVSPropertyOp1
 70
     1
102
RTVSPropertyOp2
 70
     1
102
RTVSPropertyOp3
 70
     1
102
RTVSPropertyOp4
 70
     1
102
RTVSPropertyOp5
 70
     1
102
RTVSPropertyOp6
 70
     1
102
RTVSPropertyOp7
 70
     1
102
RTVSPropertyOp8
 70
     1
102
RTVSPropertyOp9
 70
     1
102
RTVSPropertyOp10
 70
     1
102
RTVSPropertyOp11
 70
     1
102
RTVSPropertyOp12
 70
     1
102
RTVSPropertyOp13
 70
     1
102
RTVSPropertyOp14
 70
     1
102
RTVSPropertyOp15
 70
     1
102
RTVSPropertyOp16
 70
     1
102
RTVSPropertyOp17
 70
     1
102
RTVSPropertyOp18
 70
     1
102
RTVSPropertyOp19
 70
     1
102
RTVSPropertyOp20
 70
     1
102
RTVSPropertyOp21
 70
     1
102
RTVSPropertyOp22
 70
     1
102
RTVSPropertyOp23
 70
     1
102
RTVSPropertyOp24
 70
     1
102
RTVSPropertyOp25
 70
     1
102
RTVSPropertyOp26
 70
     1
102
RTVSPropertyOp27
 70
     1
102
RTVSPropertyOp28
 70
     1
102
RTVSPropertyOp29
 70
     1
102
RTVSPropertyOp30
 70
     1
102
RTVSPropertyOp31
 70
     1
102
RTVSPropertyOp32
 70
     1
  0
XRECORD
  5
19D
102
{ACAD_REACTORS
330
19C
102
}
330
19C
100
AcDbXrecord
280
     1
102
RTVSPropertyOp0
 70
     1
102
RTVSPropertyOp1
 70
     1
102
RTVSPropertyOp2
 70
     1
102
RTVSPropertyOp3
 70
     1
102
RTVSPropertyOp4
 70
     1
102
RTVSPropertyOp5
 70
     1
102
RTVSPropertyOp6
 70
     1
102
RTVSPropertyOp7
 70
     1
102
RTVSPropertyOp8
 70
     1
102
RTVSPropertyOp9
 70
     1
102
RTVSPropertyOp10
 70
     1
102
RTVSPropertyOp11
 70
     1
102
RTVSPropertyOp12
 70
     1
102
RTVSPropertyOp13
 70
     1
102
RTVSPropertyOp14
 70
     1
102
RTVSPropertyOp15
 70
     1
102
RTVSPropertyOp16
 70
     1
102
RTVSPropertyOp17
 70
     1
102
RTVSPropertyOp18
 70
     1
102
RTVSPropertyOp19
 70
     1
102
RTVSPropertyOp20
 70
     1
102
RTVSPropertyOp21
 70
     1
102
RTVSPropertyOp22
 70
     1
102
RTVSPropertyOp23
 70
     1
102
RTVSPropertyOp24
 70
     1
102
RTVSPropertyOp25
 70
     1
102
RTVSPropertyOp26
 70
     1
102
RTVSPropertyOp27
 70
     1
102
RTVSPropertyOp28
 70
     1
102
RTVSPropertyOp29
 70
     1
102
RTVSPropertyOp30
 70
     1
102
RTVSPropertyOp31
 70
     1
102
RTVSPropertyOp32
 70
     1
  0
XRECORD
  5
193
102
{ACAD_REACTORS
330
192
102
}
330
192
100
AcDbXrecord
280
     1
102
RTVSPropertyOp0
 70
     1
102
RTVSPropertyOp1
 70
     1
102
RTVSPropertyOp2
 70
     1
102
RTVSPropertyOp3
 70
     1
102
RTVSPropertyOp4
 70
     1
102
RTVSPropertyOp5
 70
     1
102
RTVSPropertyOp6
 70
     1
102
RTVSPropertyOp7
 70
     1
102
RTVSPropertyOp8
 70
     1
102
RTVSPropertyOp9
 70
     1
102
RTVSPropertyOp10
 70
     1
102
RTVSPropertyOp11
 70
     1
102
RTVSPropertyOp12
 70
     1
102
RTVSPropertyOp13
 70
     1
102
RTVSPropertyOp14
 70
     1
102
RTVSPropertyOp15
 70
     1
102
RTVSPropertyOp16
 70
     1
102
RTVSPropertyOp17
 70
     1
102
RTVSPropertyOp18
 70
     1
102
RTVSPropertyOp19
 70
     1
102
RTVSPropertyOp20
 70
     1
102
RTVSPropertyOp21
 70
     1
102
RTVSPropertyOp22
 70
     1
102
RTVSPropertyOp23
 70
     1
102
RTVSPropertyOp24
 70
     1
102
RTVSPropertyOp25
 70
     1
102
RTVSPropertyOp26
 70
     1
102
RTVSPropertyOp27
 70
     1
102
RTVSPropertyOp28
 70
     1
102
RTVSPropertyOp29
 70
     1
102
RTVSPropertyOp30
 70
     1
102
RTVSPropertyOp31
 70
     1
102
RTVSPropertyOp32
 70
     1
  0
XRECORD
  5
19B
102
{ACAD_REACTORS
330
19A
102
}
330
19A
100
AcDbXrecord
280
     1
102
RTVSPropertyOp0
 70
     1
102
RTVSPropertyOp1
 70
     1
102
RTVSPropertyOp2
 70
     1
102
RTVSPropertyOp3
 70
     1
102
RTVSPropertyOp4
 70
     1
102
RTVSPropertyOp5
 70
     1
102
RTVSPropertyOp6
 70
     1
102
RTVSPropertyOp7
 70
     1
102
RTVSPropertyOp8
 70
     1
102
RTVSPropertyOp9
 70
     1
102
RTVSPropertyOp10
 70
     1
102
RTVSPropertyOp11
 70
     1
102
RTVSPropertyOp12
 70
     1
102
RTVSPropertyOp13
 70
     1
102
RTVSPropertyOp14
 70
     1
102
RTVSPropertyOp15
 70
     1
102
RTVSPropertyOp16
 70
     1
102
RTVSPropertyOp17
 70
     1
102
RTVSPropertyOp18
 70
     1
102
RTVSPropertyOp19
 70
     1
102
RTVSPropertyOp20
 70
     1
102
RTVSPropertyOp21
 70
     1
102
RTVSPropertyOp22
 70
     1
102
RTVSPropertyOp23
 70
     1
102
RTVSPropertyOp24
 70
     1
102
RTVSPropertyOp25
 70
     1
102
RTVSPropertyOp26
 70
     1
102
RTVSPropertyOp27
 70
     1
102
RTVSPropertyOp28
 70
     1
102
RTVSPropertyOp29
 70
     1
102
RTVSPropertyOp30
 70
     1
102
RTVSPropertyOp31
 70
     1
102
RTVSPropertyOp32
 70
     1
  0
ENDSEC
  0
EOF
